» » »

Distorted Epiphany, Wee All Ing Happy Tabs (ver.1)

Artists:  A B C D E F G H I J K L M N O P Q R S T U V W X Y Z # 

Wee All Ing Happy Tabs (ver.1)

Distorted Epiphany Tabs
Rating:
0/5 (0 votes)
Hard to play? Try these video lessons and learn fast.
                NOTE - All Distorted Epiphany tabs are subject to change for a while... I should 
know... I wrote the songs. For the latest tabs, check 

We're All ***ing Happy

Music by Distorted Epiphany
Words by Goth


Tuning: Drop D, Down 1 whole step - C G C F A D

Key
  * - harmonic
  / - slide
  x - dampen
  ~ - hold note
  ^ - bend
  t - tremolo
  > - pickscr*pe
  h - hammer on
  p - pull off
  : - pinch harmonic



Riff A
D|--------------------------------|
A|--------------------------------|
F|--------------------------------|
C|--------------------------------|
G|2--X-X-1---X-X-5---X-X-6--6-6-6-|
C|2--X-X-1---X-X-5---X-X-6--6-6-6-|

Riff B
D|--------------------------------|
A|--------------------------------|
F|--------------------------------|
C|--------------------------------|
G|2--X-X-1---X-X-5---X-X-6--------|
C|2--X-X-1---X-X-5---X-X-6--------|


Riff C D|--------------------------------|
A|--------------------------------|
F|--------------------------------|
C|5-5-5-5-4-4-4-4-3-3-3-3-2-2-2-2-|
G|5-5-5-5-4-4-4-4-3-3-3-3-2-2-2-2-|
C|5-5-5-5-4-4-4-4-3-3-3-3-2-2-2-2-|


Riff D
D|--------------------------------------------|
A|--------------------------------------------|
F|--------------------------------------------|
C|2t-----1t------5t------6t-------------------|
G|--------------------------------------------|
C|--------------------------------------------|


ORDER

Riff A x 2 (w/stationary wah)
Riff A x 6
Riff B x 4
Riff A x 4
Riff B x 4
Riff A x 4
Riff B x 4
Riff C x 4
Riff A x 4
Riff B x 4
Riff A x 4
Riff D x 4
            

comments powered by Disqus
↑ Back to top | Distorted Epiphany Tabs for Wee All Ing Happy. Lyrics for acoustic guitar and electric guitar. Tablatures and chords are parodies/interpretations of the original songs. You may use it for private study, scholarship, research or language learning purposes only