>
 >
The Ants Go Marching

The Ants Go Marching Guitar Tabs

Distorted Epiphany - The Ants Go Marching chords, tabs, tablatures, lyrics

Guitar lessons | Add/correct | Request | Top 50 tabs Artists:  A B C D E F G H I J K L M N O P Q R S T U V W X Y Z 0-9

The Ants Go Marching Guitar Tabs – Distorted Epiphany

CD, Sheet music, Poster

Do you like The Ants Go Marching? Share with your friends now
Tabs
NOTE - All Distorted Epiphany tabs are subject to change for a while... I should 
know... I wrote the songs. For the latest tabs, check 

Ants Go Marching

Music by Distorted Epiphany
Words based on old nursery rhyme



Tuning: Drop D, Down 1 whole step - C G C F A D

Key
  * - harmonic
  / - slide
  x - dampen
  ~ - hold note
  ^ - bend
  t - tremolo
  > - pickscrape
  h - hammer on
  p - pull off
  : - pinch harmonic

Main
D|------------------------------------------------
A|------------------------------------------------
F|------------------------------------------------
C|5---5-5---7-8---8-8---7-5---5-5---3-1-1-1-1-1-1-
G|5---5-5---7-8---8-8---7-5---5-5---3-1-1-1-1-1-1-
C|5---5-5---7-8---8-8---7-5---5-5---3-1-1-1-1-1-1-
PM                                      - -   - -

D|------------------------------------------------------
A|------------------------------------------------------
F|------------------------------------------------------
C|5---5-5---7-8---8-8---10-12---12-12---10-12---12-12---
G|5---5-5---7-8---8-8---10-12---12-12---10-12---12-12---
C|5---5-5---7-8---8-8---10-12---12-12---10-12---12-12---

D|--------------------------------------------------------
A|--------------------------------------------------------
F|12---12-12---12-10---10-10---10-8---8-8---8-7-7-7-7-7-7-
C|-X----X--X----X--X----X--X----X-8---8-8---8-7-7-7-7-7-7-
G|10---10-10---10--8----8--8----8-6---6-6---6-5-5-5-5-5-5-
C|--------------------------------------------------------

D|--------------------------------------------------|
A|--------------------------------------------------|
F|--------------------------------------------------|
C|5~~~~~~~3~~~~~~~1~~~~~~~0~~~~~~~3-5-5-3-5-5-5-5~~~|
G|5~~~~~~~3~~~~~~~1~~~~~~~0~~~~~~~3-5-5-3-5-5-5-5~~~|
C|5~~~~~~~3~~~~~~~1~~~~~~~0~~~~~~~3-5-5-3-5-5-5-5~~~|

Solo
Guitar 1
D|------------------------------------------------------------------------
A|------------------------------------------------------------------------
F|------------------------------------------------------------------------
C|5--7--8--5--7--8--5--7--8--5--7--8--7--8-10--7--8-10--7--8-10--7--8-10--
G|------------------------------------------------------------------------
C|------------------------------------------------------------------------
Guitar 2
D|------------------------------------------------------------------------
A|------------------------------------------------------------------------
F|------------------------------------------------------------------------
C|5--5--5--5--5--5--5--5--5--5--5--5--7--7--7--7--7--7--7--7--7--7--7--7--
G|5--5--5--5--5--5--5--5--5--5--5--5--7--7--7--7--7--7--7--7--7--7--7--7--
C|5--5--5--5--5--5--5--5--5--5--5--5--7--7--7--7--7--7--7--7--7--7--7--7--

Guitar 1
D|------------------------------------------------------------------------
A|------------------------------------------------------------------------
F|------------------------------------------------------------------------
C|-8-10-12--8-10-12--8-10-12--8-10-12-10-12-13-10-12-13-10-12-13-10-12-13-
G|------------------------------------------------------------------------
C|------------------------------------------------------------------------
Guitar 2
D|------------------------------------------------------------------------
A|------------------------------------------------------------------------
F|------------------------------------------------------------------------
C|8--8--8--8--8--8--8--8--8--8--8--8--10-10-10-10-10-10-10-10-10-10-10-10-
G|8--8--8--8--8--8--8--8--8--8--8--8--10-10-10-10-10-10-10-10-10-10-10-10-
C|8--8--8--8--8--8--8--8--8--8--8--8--10-10-10-10-10-10-10-10-10-10-10-10-

Guitar 1
D|------------------------------------------------------------------------
A|------------------------------------------------------------------------
F|------------------------------------------------------------------------
C|12-17-15-12-17-15-12-17-15-12-17-15-15-19-17-15-19-17-15-19-17-15-19-17-
G|------------------------------------------------------------------------
C|------------------------------------------------------------------------
Guitar 2
D|------------------------------------------------------------------------
A|------------------------------------------------------------------------
F|------------------------------------------------------------------------
C|12-12-12-12-12-12-12-12-12-12-12-12-13-13-13-13-13-13-13-13-13-13-13-13-
G|12-12-12-12-12-12-12-12-12-12-12-12-13-13-13-13-13-13-13-13-13-13-13-13-
C|12-12-12-12-12-12-12-12-12-12-12-12-13-13-13-13-13-13-13-13-13-13-13-13-

Guitar 1
D|------------------------------------------------------------------------|
A|------------------------------------------------------------------------|
F|------------------------------------------------------------------------|
C|17-20-19-17-20-19-17-20-19-17-20-19-22-22-22-22-22-22-20-20-20-19-19\15-|
G|------------------------------------------------------------------------|
C|------------------------------------------------------------------------|
Guitar 2
D|------------------------------------------------------------------------|
A|------------------------------------------------------------------------|
F|------------------------------------------------------------------------|
C|15-15-15-15-15-15-15-15-15-15-15-15-17-17-17-17-17-17-17-17-17-17-17-17\|
G|15-15-15-15-15-15-15-15-15-15-15-15-17-17-17-17-17-17-17-17-17-17-17-17\|
C|15-15-15-15-15-15-15-15-15-15-15-15-17-17-17-17-17-17-17-17-17-17-17-17\|

Ending
D|---------------------------------|
A|---------------------------------|
F|---------------------------------|
C|5--7-8----8-7-5----4--------5----|
G|-------------------4------5------|
C|------------------------5--------|


ORDER

Slowly
Fast palm muted tremolo
Normal
Palm muted every count
Solo
Normal
Palm muted every count
Repeat last section 6 times
Ending





Comments


Popular Distorted Epiphany tabs & chords
Ballad Of A Vampire Tabs
Ballad Of A Vampire 1 Tabs
Escape Tabs
Innocent 1 Tabs
Misery Tabs
My Mistake Tabs
Possessed Tabs
Possessed 1 Tabs
Saviour Tabs
Son Of Sam Tabs


Song lyrics



↑ Back to top | Tablatures and chords are parodies/interpretations of the original songs. You may use it for private study, scholarship, research or language learning purposes only
© 2014 AZChords.com Contact us | Privacy policy | DMCA | Add/correct tabs | Request tabs | Top 50 tabs