» » »

Son Of Sam Tabs (ver.1)

Artists:  A B C D E F G H I J K L M N O P Q R S T U V W X Y Z # 

Son Of Sam Tabs (ver.1)

Distorted Epiphany
Rating:
0/5 (0 votes)

Hard to play? Try these video lessons and learn fast.
                NOTE - All Distorted Epiphany tabs are subject to change for a while... I should 
know... I wrote the songs. For the latest tabs, check 


Music by Distorted Epiphany
Words by Goth


Tuning: Drop D, Down 1 whole step - C G C F A D

Key
  * - harmonic
  / - slide
  x - dampen
  ~ - hold note
  ^ - bend
  t - tremolo
  > - pickscr*pe
  h - hammer on
  p - pull off
  : - pinch harmonic


Intro
  (clean)
D|----------------|----------------|----------------|----------------|
A|----------------|----------------|----------------|----------------|
F|----------------|----------------|----------------|----------------|
C|--3--3--3--3--3-|--2--2--2--2--2-|--1--1--1--1--1-|--O--O--O--O--O-|
G|-O--O--O--O--O--|-O--O--O--O--O--|-O--O--O--O--O--|-O--0--O--O--O--|
C|O--O--O--O--O--O|O--O--O--O--O--O|O--O--O--O--O--O|O--O--O--O--O--O|

D|----------------|----------------|----------------|----------------|
A|----------------|----------------|----------------|----------------|
F|----------------|----------------|----------------|----------------|
C|--3--3--3--3--3-|--2--2--2--2--2-|--O--O--O--O--O-|--1--1--1--1--1-|
G|-O--O--O--O--O--|-O--O--O--O--O--|-O--O--O--O--O--|-O--O--O--O--O--|
C|O--O--O--O--O--O|O--O--O--O--O--O|O--O--O--O--O--O|O--O--O--O--O--O|

D|----------------|----------------|----------------|----------------|
A|----------------|----------------|----------------|----------------|
F|----------------|----------------|----------------|----------------|
C|--3--3--3--3--3-|--5--5--5-----5-|--2--2--2--2--2-|--O--O--O--O--O-|
G|-O--O--O--O--O--|-O--O--O--O--O--|-O--O--O--O--O--|-O--O--O--O--O--|
C|O--O--O--O--O--O|O--O--O--O--O--O|O--O--O--O--O--O|O--O--O--O--O--O|

D|----------------|----------------|----------------|----------------|
A|----------------|----------------|----------------|----------------|
F|----------------|----------------|----------------|----------------|
C|--3--3--3--3--3-|--2--2--2--2--2-|--1--1--1--1--1-|--O--O--O--O--O-|
G|-O--O--O--O--O--|-O--O--O--O--O--|-O--O--O--O--O--|-O--0--O--O--O--|
C|O--O--O--O--O--O|O--O--O--O--O--O|O--O--O--O--O--O|O--O--O--O--O--O|

D|----------------|----------------|----------------|----------------|
A|----------------|----------------|----------------|----------------|
F|----------------|----------------|----------------|----------------|
C|--3--3--3--3--3-|--2--2--2--2--2-|--O--O--O--O--O-|--1--1--1--1--1-|
G|-O--O--O--O--O--|-O--O--O--O--O--|-O--O--O--O--O--|-O--O--O--O--O--|
C|O--O--O--O--O--O|O--O--O--O--O--O|O--O--O--O--O--O|O--O--O--O--O--O|

Verse
  (clean)
D|----------------|----------------|----------------|----------------|
A|----------------|----------------|----------------|----------------|
F|----------------|----------------|----------------|----------------|
C|--3--3--3--3--3-|--2--2--2--2--2-|--3--3--3--3--3-|--1--1--1--1--1-|
G|-O--O--O--O--O--|-O--O--O--O--O--|-O--O--O--O--O--|-O--O--O--O--O--|
C|O--O--O--O--O--O|O--O--O--O--O--O|O--O--O--O--O--O|O--O--O--O--O--O|

D|----------------|----------------|----------------|----------------|
A|----------------|----------------|----------------|----------------|
F|----------------|----------------|----------------|----------------|
C|--3--3--3--3--3-|--2--2--2--2--2-|--3--3--3--3--3-|--O--O--O-----O-|
G|-O--O--O--O--O--|-O--O--O--O--O--|-O--O--O--O--O--|-O--O--O--O--O--|
C|O--O--O--O--O--O|O--O--O--O--O--O|O--O--O--O--O--O|O--O--O--O--O--O|

Chorus
  (dist.)
D|----------------|----------------|----------------|----------------|
A|----------------|----------------|----------------|----------------|
F|----------------|----------------|----------------|----------------|
C|3--3-3--3-3-3-3-|2--2-2--2-2-2-2-|1--1-1--1-1-1-1-|O--O-O--O-O-O-O-|
G|O--O-O--O-O-O-O-|O--O-O--O-O-O-O-|O--O-O--O-O-O-O-|O--O-O--O-O-O-O-|
C|O--O-O--O-O-O-O-|O--O-O--O-O-O-O-|O--O-O--O-O-O-O-|O--O-O--O-O-O-O-|

Bridge
  (clean)
D|----------------|----------------|----------------|----------------|
A|----------------|----------------|----------------|----------------|
F|--O--O--O--O--O-|--2--2--2--2--2-|--3--3--3--3--3-|--2--2--2--2--2-|
C|-O--O--O--O--O--|-O--O--O--O--O--|-O--O--O--O--O--|-O--O--O--O--O--|
G|----------------|----------------|----------------|----------------|
C|O--O--O--O--O--O|O--O--O--O--O--O|O--O--O--O--O--O|O--O--O--O--O--O|

D|----------------|----------------|----------------|----------------|
A|----------------|----------------|----------------|----------------|
F|--5--5--5--5--5-|--7--7--7--7--7-|--9--9--9--9--9-|--10-10-10-10-10|
C|-O--O--O--O--O--|-O--O--O--O--O--|-O--O--O--O--O--|-O--O--O--O--O--|
G|----------------|----------------|----------------|----------------|
C|O--O--O--O--O--O|O--O--O--O--O--O|O--O--O--O--O--O|O--O--O--O--O--O|

D|----------------|----------------|----------------|----------------|
A|----------------|----------------|----------------|----------------|
F|--O--O--O--O--O-|--2--2--2--2--2-|--3--3--3--3--3-|--2--2--2--2--2-|
C|-O--O--O--O--O--|-O--O--O--O--O--|-O--O--O--O--O--|-O--O--O--O--O--|
G|----------------|----------------|----------------|----------------|
C|O--O--O--O--O--O|O--O--O--O--O--O|O--O--O--O--O--O|O--O--O--O--O--O|

Interlude
  (dist.)
D|----------------|----------------|----------------|----------------|
A|----------------|----------------|----------------|----------------|
F|----------------|----------------|----------------|----------------|
C|--3--3--3--3--3-|--2--2--2--2--2-|--1--1--1--1--1-|--O--O--O--O--O-|
G|-O--O--O--O--O--|-O--O--O--O--O--|-O--O--O--O--O--|-O--0--O--O--O--|
C|O--O--O--O--O--O|O--O--O--O--O--O|O--O--O--O--O--O|O--O--O--O--O--O|

Ending
  (dist.)
D|-------------------|
A|-------------------|
F|-------------------|
C|0---0---0---0--0-0-|
G|0---0---0---0--0-0-|
C|0---0---0---0--0-0-|


ORDER

Intro
Chorus x2
Verse x2
Chorus x2
Bridge
Verse x2
Chorus x2
Verse x2
Chorus x4
Interlude x2
Chorus x4
Ending til fade
            
Hard to play? Try these video lessons and learn fast. | Correct




comments powered by Disqus
↑ Back to top | Tablatures and chords are parodies/interpretations of the original songs. You may use it for private study, scholarship, research or language learning purposes only