» » »

Escape Tabs (ver.1)

Artists:  A B C D E F G H I J K L M N O P Q R S T U V W X Y Z # 

Escape Tabs (ver.1)

Distorted Epiphany
Rating:
0/5 (0 votes)

Hard to play? Try these video lessons and learn fast.
                NOTE - All Distorted Epiphany tabs are subject to change for a while... I should 
know... I wrote the songs. For the latest tabs, check 


Music by Distorted Epiphany
Words by Goth


Tuning: Drop D, Down 1 whole step - C G C F A D

Key
  * - harmonic
  / - slide
  x - dampen
  ~ - hold note
  ^ - bend
  t - tremolo
  > - pickscr*pe
  h - hammer on
  p - pull off
  : - pinch harmonic


Main Chords
  Gm      E       Csus7   Dm      B
D|0-------1-------0-------0-------0-------|
A|1-------1-------3-------0-------1-------|
F|2-------2-------2-------0-------0-------|
C|2-------3-------0-------2-------2-------|
G|0-------3---------------2-------3-------|
C|----------------------------------------|

Intro/Fill
D|------------------------------------------------------------|
A|------------------------------------------------------------|
F|------------------------------------------------------------|
C|----------------------------0---0-2-3-2---2-0---0-----------|
G|----3-2-0-----2-3-------2-3-----------------------3---3-2---|
C|0-1---------------3-----------------------------------------|

Solo
D|---------------|
A|---------------|
F|-improvisation-|
C|-----solo------|
G|---------------|
C|---------------|

Intro/Verse/Fill/Solo/Bridge
Gm    E    Csus7    Dm    Csus7    B    Dm

Chorus
Gm    Dm    Csus7    Dm

End on Gm
            
Hard to play? Try these video lessons and learn fast. | Correct




comments powered by Disqus
↑ Back to top | Tablatures and chords are parodies/interpretations of the original songs. You may use it for private study, scholarship, research or language learning purposes only