» » »

Distorted Epiphany, Ballad Of A Vampire Tabs (ver.2)

Artists:  A B C D E F G H I J K L M N O P Q R S T U V W X Y Z # 

Ballad Of A Vampire Tabs (ver.2)

Distorted Epiphany Tabs
Rating:
0/5 (0 votes)
Ballad Of A Vampire lessons Tabs too difficult? Try these video lessons and learn fast
                NOTE - All Distorted Epiphany tabs are subject to change for a while... I should 
know... I wrote the songs. For the latest tabs, check 

 
Ballad Of A Vampire


Music by Distorted Epiphany
Words by Pyro


Tuning: Drop D, Down 1 whole step - C G C F A D

Key
  * - harmonic
  / - slide
  x - dampen
  ~ - hold note
  ^ - bend
  t - tremolo
  > - pickscr*pe
  h - hammer on
  p - pull off
  : - pinch harmonic


Riff A
(clean)
D|------------------------|
A|------------------------|
F|------------------------|
C|--2-----2-----2-----2---|
G|0---0-3---3-2---2-1---1-|
C|------------------------|

Riff B
(dist.)
D|----------------------------------------------------|
A|----------------------------------------------------|
F|----------------------------------------------------|
C|7-777-7-777-7-777-7-775-3-333-3-333-3\2/333-3\2/333-|
G|7-777-7-777-7-777-7-775-3-333-3-333-3\2/333-3\2/333-|
C|7-777-7-777-7-777-7-775-3-333-3-333-3\2/333-3\2/333-|

Riff C
(dist.)
D|------------------------------------------------|
A|------------------------------------------------|
F|------------------------5-5-5-5-7-5-4-4-4-4-4-4-|
C|7-7-7-7-7-7-3-3-3-2-2-2-5-5-5-5-7-5-4-4-4-4-4-4-|
G|7-7-7-7-7-7-3-3-3-2-2-2-3-3-3-3-5-3-2-2-2-2-2-2-|
C|7-7-7-7-7-7-3-3-3-2-2-2-------------------------|

Riff D
(dist.)
D|------------------------------------------------|
A|------------------------------------------------|
F|------------------------------------------------|
C|7-7-7-7-7-7-3-3-3-2-2-2-0-2-2-2-2-2-3-3-3-5-5-5-|
G|7-7-7-7-7-7-3-3-3-2-2-2-0-2-2-2-2-2-3-3-3-5-5-5-|
C|7-7-7-7-7-7-3-3-3-2-2-2-0-2-2-2-2-2-3-3-3-5-5-5-|

Riff E
(dist.)
D|------------------------------------------------|
A|------------------------------------------------|
F|------------------------------------------------|
C|2-2-2-5-2-2-5-2-2-5-2-2-------------------------|
G|0-0-0-2-0-0-2-0-0-2-0-0-3-3-3-2-3-3-2-3-3-2-3-3-|
C|------------------------3-3-3-2-3-3-2-3-3-2-3-3-|
Riff F
(dist.)
D|------------------------------------------------|
A|------------------------------------------------|
F|2-2-2-5-4-4-2-2-2-5-4-4-2-2-2-5-4-4-7-7-7-9-9-9-|
C|2-2-2-X-X-X-2-2-2-X-X-X-2-2-2-X-X-X-X-X-X-X-X-X-|
G|0-0-0-3-2-2-0-0-0-3-2-2-0-0-0-3-2-2-5-5-5-7-7-7-|
C|------------------------------------------------|

Riff G
(dist.)
D|---------------------------------------------------|
A|---------------------------------------------------|
F|---------------------------------------------------|
C|7-7-7-5-5-5-7-7-7-10-10-10-9-9-9-5-5-5-7-7-7-7-7-7-|
G|7-7-7-5-5-5-7-7-7-10-10-10-9-9-9-5-5-5-7-7-7-7-7-7-|
C|7-7-7-5-5-5-7-7-7-10-10-10-9-9-9-5-5-5-7-7-7-7-7-7-|


ORDER

Riff A x 12
Riff B x 2
Riff A (w/dist.) x 4
Riff A x 8
Riff B x 2
Riff C x 5
Riff D
Riff E x 2
Riff F x 6
Riff R x 2
Riff C x 5
Riff D
Riff G
Riff A (fade out)
            
Submit corrections

comments powered by Disqus
↑ Back to top | Distorted Epiphany Tabs for Ballad Of A Vampire. Lyrics for acoustic guitar and electric guitar. Tablatures and chords are parodies/interpretations of the original songs. You may use it for private study, scholarship, research or language learning purposes only