» » »

Dissociatives, Young Man, Old Man Tabs (ver.1)

Artists:  A B C D E F G H I J K L M N O P Q R S T U V W X Y Z # 

Young Man, Old Man Tabs (ver.1)

Dissociatives Tabs
 Rating:
4/5 (4 votes)
Young Man, Old Man lessons Tabs too difficult? Try these video lessons and learn fast
1
                The Dissociatives - Young Man, Old Man
Album - Self-titled
Tuning - Standard

Intro
    D            E            F            A# G  C  F
E-|---------------------------------------------------|
B-|-7--7--7--7---0--0--0--0---1--1--1--1---3--3--5--1-|
G-|-7--7--7--7---1--1--1--1---2--2--2--2---3--4--5--2-|
D-|-7--7--7--7---2--2--2--2---3--3--3--3---3--5--5--3-|
A-|-5--5--5--5---2--2--2--2---3--3--3--3---1--5--3--3-|
E-|--------------0--0--0--0---1--1--1--1------3-----1-|

Verse
    G#m          E            C#         E
E-|------------------------------------------------|x2
B-|--------------0--0--0--0---5-5----5---0-0----0--|
G-|-4--4--4--4---1--1--1--1---5-5----5---1-1----1--|
D-|-6--6--6--6---2--2--2--2---5-5----5---2-2----2--|
A-|-6--6--6--6---2--2--2--2---3-3----3---2-2----2--|
E-|-4--4--4--4---0--0--0--0--------------0-0----0--|

Chorus
    B            A            E            B
E-|---------------------------------------------------|x2
B-|-7--7--7--7---5--5--5--5---0--0--0--0---7--7--7--7-|
G-|-8--8--8--8---6--6--6--6---1--1--1--1---8--8--8--8-|
D-|-9--9--9--9---7--7--7--7---2--2--2--2---9--9--9--9-|
A-|-9--9--9--9---7--7--7--7---2--2--2--2---9--9--9--9-|
E-|-7--7--7--7---5--5--5--5---0--0--0--0---7--7--7--7-|

Bridge
    D            E            F            G  
E-|---------------------------------------------------|
B-|-7--7--7--7---0--0--0--0---1--1--1--1---3--3--3--3-|
G-|-7--7--7--7---1--1--1--1---2--2--2--2---4--4--4--4-|
D-|-7--7--7--7---2--2--2--2---3--3--3--3---5--5--5--5-|
A-|-5--5--5--5---2--2--2--2---3--3--3--3---5--5--5--5-|
E-|--------------0--0--0--0---1--1--1--1---3--3--3--3-|

    D            E            F            A# G  C  F
E-|---------------------------------------------------|
B-|-7--7--7--7---0--0--0--0---1--1--1--1---3--3--5--1-|
G-|-7--7--7--7---1--1--1--1---2--2--2--2---3--4--5--2-|
D-|-7--7--7--7---2--2--2--2---3--3--3--3---3--5--5--3-|
A-|-5--5--5--5---2--2--2--2---3--3--3--3---1--5--3--3-|
E-|--------------0--0--0--0---1--1--1--1------3-----1-|
            
Submit corrections

comments powered by Disqus
↑ Back to top | Dissociatives Tabs for Young Man, Old Man. Lyrics for acoustic guitar and electric guitar. 1 Tablatures and chords are parodies/interpretations of the original songs. You may use it for private study, scholarship, research or language learning purposes only