» » »

Dissociatives, Paris Circa 2007slash08 Bass tabs (ver.1)

Artists:  A B C D E F G H I J K L M N O P Q R S T U V W X Y Z # 

Paris Circa 2007slash08 Bass tabs (ver.1)

Dissociatives Tabs
Rating:
0/5 (0 votes)
Hard to play? Try these video lessons and learn fast.
                -------------------------------------------------------------------------------
			     Paris Circa 2007Slash08 - The Dissociatives
-------------------------------------------------------------------------------


Tuning: Standard

   Main Riff
G|-------7------5-5----------------------|
D|-----------7-------5-5----7---5-6-7----|
A|---5-----------------------------------|
E|---------------------------------------|

  Other Part
G|---------------------------------------|
D|---------------------------------------|
A|---5----7---8-8------------------------|
E|---------------------------------------|

Not a hard song, but a great bass line
            

comments powered by Disqus
↑ Back to top | Dissociatives Bass for Paris Circa 2007slash08. Lyrics for acoustic guitar and electric guitar. Tablatures and chords are parodies/interpretations of the original songs. You may use it for private study, scholarship, research or language learning purposes only