>
 >
Where Dead Angels Lie 1

Where Dead Angels Lie 1 Guitar Tabs

Dissection - Where Dead Angels Lie 1 chords, tabs, tablatures, lyrics

Guitar lessons | Add/correct | Request | Top 50 tabs Artists:  A B C D E F G H I J K L M N O P Q R S T U V W X Y Z 0-9

Where Dead Angels Lie 1 Guitar Tabs – Dissection

CD, Sheet music, Poster

Do you like Where Dead Angels Lie 1? Share with your friends now
Bass TabsTabsTabs v2Tabs v3
                            WHERE DEAD ANGELS LIE
                            As recorded by Dissection
                 (From the 1995 Album STORM OF THE LIGHTS BANE)


Gtr I (E A D G B E) - 'Acoustic'
Gtr II (E A D G B E) - 'Guitar 1 left'
Gtr III (E A D G B E) - 'Guitar 2 right'
Gtr IV (E A D G B E) - 'Lead'
Gtr V (E A D G B E) - 'Guitar middle'

 Acoustic Intro
  Q.=115
 6/8
  Gtr I
  E E E E E E   E E E E Q    E E E E E E   E E E E S S E
|---------0---|-3----------|-------------|---------3-----|
|-----------0-|---3--------|---------0---|-------4---4---|
|-------0-----|-----3------|-------0---0-|-----5-------5-|
|-----2-------|-------3----|-----2-------|---5-----------|
|---2---------|------------|---2---------|-3-------------|
|-0-----------|---------1--|-0-----------|---------------|


 6/8
  E E E E E E   E E E E Q    E E E E E E   E E E E E E
|---------0---|-3----------|-------------|---------0---|
|-----------0-|---3--------|---------0---|-------4---4-|
|-------0-----|-----3------|-------0---0-|-----5-------|
|-----2-------|-------3----|-----2-------|---5---------|
|---2---------|------------|---2---------|-3-----------|
|-0-----------|---------1--|-0-----------|-------------|


 6/8
  E E E E E E   E E E E Q    E E E E E E   E E E E S S E
|---------0---|-3----------|-------------|---------3-----|
|-----------0-|---3--------|---------0---|-------4---4---|
|-------0-----|-----3------|-------0---0-|-----5-------5-|
|-----2-------|-------3----|-----2-------|---5-----------|
|---2---------|------------|---2---------|-3-------------|
|-0-----------|---------1--|-0-----------|---------------|


 6/8
  E E E E E E   E E E E Q    E E E E E E   E E E E E E
|---------0---|-3----------|-------------|---------0---|
|-----------0-|---3--------|---------0---|-------0---0-|
|-------0-----|-----3------|-------0---0-|-----5-------|
|-----2-------|-------3----|-----2-------|---5---------|
|---2---------|------------|---2---------|-3-----------|
|-0-----------|---------1--|-0-----------|-------------|


    Q.=135                         1.,2.,3.         4.
    E5               F5   E5        C5              C5
   6/8
    Gtr II
    H    Q    E E Q  Q    H    Q    E E E E E E  4x H.
||----------|-3---------|---------|---------3----||-------
||o---------|---3-------|---------|-------4-4-4-o||-------
||----------|-----3-----|---------|-5-5-5-5-5-5--||-5-----
||--2----2--|--------3--|-2----2--|-5-5-5-5---5--||-5-----
||o-2----2--|--------3--|-2----2--|-3-3-3-----3-o||-3-----
||--0----0--|--------1--|-0----0--|--------------||-------
|
|   Gtr III
|   H    Q    E E Q  Q    H    Q    E E E E E E  4x H.
||-------0--|-3---------|------0--|---------3----||-------
||o------0--|---3-------|------0--|-------4-4-4-o||-------
||-------0--|-----3-----|------0--|-5-5-5-5-5-5--||-5-----
||--2----2--|--------3--|-2----2--|-5-5-5-5---5--||-5-----
||o-2-------|--------3--|-2-------|-3-3-3-----3-o||-3-----
||--0-------|--------1--|-0-------|--------------||-------


    E5               F5   E5        C5
   6/8
    Gtr IV
    H    Q    H      Q    H    Q    H       Q
||----------|-----------|---------|-------------|
||o---------|-----------|---------|-------------|
||----------|-----------|---------|-2-----------|
||--2----5--|-2------5--|-2----5--|---------4---|
||o---------|-----------|---------|-------------|
||----------|-----------|---------|-------------|
|
|   Gtr V
|   H    Q    E E Q  Q    H    Q    E E E E E E
||-------0--|-3---------|------0--|---------3---|
||o------0--|---3-------|------0--|-------4-4-4-|
||-------0--|-----3-----|------0--|-5-5-5-5-5-5-|
||--2----2--|--------3--|-2----2--|-5-5-5-5---5-|
||o-2-------|--------3--|-2-------|-3-3-3-----3-|
||--0-------|--------1--|-0-------|-------------|


  E5               F5   E5        C5   B5
  H    Q    H      Q    H    Q    H    Q
|---------|-----------|---------|----------||
|---------|-----------|---------|---------o||
|---------|-----------|---------|----------||
|-5----2--|-2------5--|-2----4--|-5----0---||
|---------|-----------|---------|---------o||
|---------|-----------|---------|----------||
|
| H    Q    E E Q  Q    H    Q    H    Q
|------0--|-3---------|------0--|----------||
|------0--|---3-------|------0--|---------o||
|------0--|-----3-----|------0--|-5----4---||
|-2----2--|--------3--|-2----2--|-5----4---||
|-2-------|--------3--|-2-------|-3----2--o||
|-0-------|--------1--|-0-------|----------||


   6/8
    Gtr II
    H    Q    H    Q    H    Q    a H    Q
||----------|---------|---------|-----------|
||o---------|---------|---------|-----------|
||----------|---------|---------|-----------|
||--2----5--|-2----5--|-2----5--|-5h7----4--|
||o---------|---------|---------|-----------|
||----------|---------|---------|-----------|
|
|   Gtr III
|   H    Q    H    Q    H    Q    a H    Q
||----------|---------|---------|-----------|
||o------5--|------8--|---------|-----------|
||--4-------|-4-------|-4----4--|-4h5----2--|
||----------|---------|---------|-----------|
||o---------|---------|---------|-----------|
||----------|---------|---------|-----------|


  H    Q    H    Q    H    Q    H    Q
|---------|---------|---------|----------||
|---------|---------|---------|---------o||
|---------|---------|---------|----------||
|-5----2--|-2----5--|-2----4--|-5----0---||
|---------|---------|---------|---------o||
|---------|---------|---------|----------||
|
| H    Q    H    Q    H    Q    H    Q
|---------|---------|---------|----------||
|------5--|------8--|---------|---------o||
|-4-------|-4-------|-4----4--|-5----2---||
|---------|---------|---------|----------||
|---------|---------|---------|---------o||
|---------|---------|---------|----------||


   6/8
    TP   TP   TP   TP   TP   TP   TP   TP
    H    Q    H    Q    H    Q    H    Q
||----------|---------|---------|---------|
||o---------|---------|---------|---------|
||----------|---------|---------|---------|
||--2----5--|-2----5--|-2----5--|-7----4--|
||o---------|---------|---------|---------|
||----------|---------|---------|---------|
|
|   TP   TP   TP   TP   TP   TP   TP   TP
|   H    Q    H    Q    H    Q    H    Q
||----------|---------|---------|---------|
||o------5--|------8--|---------|---------|
||--4-------|-4-------|-4----4--|-5----2--|
||----------|---------|---------|---------|
||o---------|---------|---------|---------|
||----------|---------|---------|---------|


  TP   TP   TP   TP   TP   TP   TP   TP
  H    Q    H    Q    H    Q    H    Q
|---------|---------|---------|-----------||
|---------|---------|---------|----------o||
|---------|---------|---------|-----------||
|-5----2--|-2----5--|-2----4--|-5----0----||
|---------|---------|---------|----------o||
|---------|---------|---------|-----------||
|
| TP   TP   TP   TP   TP   TP   TP   TP
| H    Q    H    Q    H    Q    H    Q
|---------|---------|---------|-----------||
|------5--|------8--|---------|----------o||
|-4-------|-4-------|-4----4--|-5----2----||
|---------|---------|---------|-----------||
|---------|---------|---------|----------o||
|---------|---------|---------|-----------||


   Verse
    E5            Eb5         E5            Eb5
   6/8
    Gtr IV
    Q   E E E E   Q   Q  Q    Q   E E E E   Q   Q  Q
||--------------|-----------|-------------|-----------|
||o-----------8-|-7---------|-----------8-|-7---------|
||----------9---|-----8-----|---------9---|-----8-----|
||--------9-----|--------8--|-------9-----|--------8--|
||o-----7-------|-----------|-----7-------|-----------|
||--0-----------|-----------|-0-----------|-----------|
|
|   Gtr V
|   H.            H.          H.            H.
||--------------|-----------|-------------|-----------|
||o-------------|-----------|-------------|-----------|
||--------------|-8---------|-------------|-8---------|
||--2-----------|-8---------|-2-----------|-8---------|
||o-2-----------|-6---------|-2-----------|-6---------|
||--0-----------|-----------|-0-----------|-----------|


  E5            Eb5         C5     B5      E5
 6/8
                                   |-3-|
  Q   E E E E   Q   Q  Q    Q.   E E E E   H.     4x
|-------------|-----------|--------------|--------||
|-----------8-|-7---------|--------------|-------o||
|---------9---|-----8-----|------5-----4-|--------||
|-------9-----|--------8--|----------4---|-2------||
|-----7-------|-----------|-3------2-----|-2-----o||
|-0-----------|-----------|--------------|-0------||
|
| H.            H.          H      Q       H.     4x
|-------------|-----------|--------------|--------||
|-------------|-----------|--------------|-------o||
|-------------|-8---------|-5------4-----|--------||
|-2-----------|-8---------|-5------4-----|-2------||
|-2-----------|-6---------|-3------2-----|-2-----o||
|-0-----------|-----------|--------------|-0------||


    E5          Em                 Ebm         C5    G
   6/8
    H     E E    Q    S  S  E Q    Q   Q  Q    Q  Q  Q
||------------|------------------|-----------|----------|
||o-----------|------------------|-----------|----------|
||------------|-12---11h12p11-9--|-----------|----------|
||----------9-|------------------|-----8--9--|----5--5--|
||o-------7---|------------------|-6---------|-3-----2--|
||--0---------|------------------|-----------|----------|
|
|   H.           H.                H.          H     Q
||------------|------------------|-----------|----------|
||o-----------|------------------|-----------|----------|
||------------|------------------|-----------|-5--------|
||--2---------|--5---------------|-4---------|-5--------|
||o-2---------|--7---------------|-6---------|-3-----2--|
||--0---------|------------------|-----------|-------3--|


  E5          Em/B            B5          C5
  H     E E   Q    Q  S S E   Q   Q  Q    Q.   E E E
|-----------|---------------|-----------|--------------||
|-----------|-8---10--7h8-7-|-----------|-------------o||
|---------9-|---------------|-----------|--------------||
|-------9---|---------------|--------0--|-2----2-2-2---||
|-7---------|---------------|-----2-----|-------------o||
|-----------|---------------|-0---------|--------------||
|
| H.          H.              H.          H.
|-----------|---------------|-----------|--------------||
|-----------|---------------|-----------|-------------o||
|-----------|-0-------------|-4---------|-5------------||
|-2---------|-2-------------|-4---------|-5------------||
|-2---------|-2-------------|-2---------|-3-----------o||
|-0---------|---------------|-----------|--------------||


   Verse
    E5        B5        E5        C5
   6/8
    Gtr II
    H.        H.        H.        H.
||----------|---------|---------|---------|
||o---------|---------|---------|---------|
||----------|-4-------|---------|-5-------|
||--2-------|-4-------|-2-------|-5-------|
||o-2-------|-2-------|-2-------|-3-------|
||--0-------|---------|-0-------|---------|
|
|   Gtr III
|   H.        H.        H.        H.
||----------|---------|---------|---------|
||o---------|---------|---------|---------|
||----------|-4-------|---------|-5-------|
||--2-------|-4-------|-2-------|-5-------|
||o-2-------|-2-------|-2-------|-3-------|
||--0-------|---------|-0-------|---------|


  E5        B5        E5   D5   E5
  H.        H.        H    Q    H    +Q
|---------|---------|---------|-------------|
|---------|---------|---------|-------------|
|---------|-4-------|-9----7--|-9----(9)\---|
|-2-------|-4-------|-9----7--|-9----(9)\---|
|-2-------|-2-------|-7----5--|-7----(7)\---|
|-0-------|---------|---------|-------------|
|
| H.        H.        H    Q    H    +Q
|---------|---------|---------|-------------|
|---------|---------|---------|-------------|
|---------|-4-------|-9----7--|-9----(9)\---|
|-2-------|-4-------|-9----7--|-9----(9)\---|
|-2-------|-2-------|-7----5--|-7----(7)\---|
|-0-------|---------|---------|-------------|


  E5           B5            G5             D5
 6/8
  Gtr IV
   H      Q     E  E Q  Q     Q    Q   Q     E  E  Q   Q
|------------|-------------|--------------|---------------|
|------------|-------------|--------------|-------10------|
|-/9-----12--|-12p11-7--7--|-/9---12--12--|-12p11-----11--|
|------------|-------------|--------------|---------------|
|------------|-------------|--------------|---------------|
|------------|-------------|--------------|---------------|
|
| Gtr V
|  H.           H.            H.             H.
|------------|-------------|--------------|---------------|
|------------|-------------|--------------|---------------|
|------------|--4----------|--------------|--7------------|
|--2---------|--4----------|--5-----------|--7------------|
|--2---------|--2----------|--5-----------|--5------------|
|--0---------|-------------|--3-----------|---------------|


  E5               B5               C5   B5         E5
   Q.    E  E  E    S  S  E Q  Q    H     S  S  E   H.
|----------------|----------------|---------------|--------||
|----------------|----------------|---------------|-------o||
|-12----12-12-12-|-11h12p11-7-----|-9----11h12p11-|-9------||
|----------------|-------------9--|---------------|--------||
|----------------|----------------|---------------|-------o||
|----------------|----------------|---------------|--------||
|
|  H.               H.              H     Q         H.
|----------------|----------------|---------------|--------||
|----------------|----------------|---------------|-------o||
|----------------|--4-------------|-5-----4-------|--------||
|--2-------------|--4-------------|-5-----4-------|-2------||
|--2-------------|--2-------------|-3-----2-------|-2-----o||
|--0-------------|----------------|---------------|-0------||


   Verse
                                                     1.,2.,3.
    E5            Eb5         E5            Eb5
   6/8
    Q   E E E E   Q   Q  Q    Q   E E E E   Q   Q  Q
||--------------|-----------|-------------|-----------|
||o-----------8-|-7---------|-----------8-|-7---------|
||----------9---|-----8-----|---------9---|-----8-----|
||--------9-----|--------8--|-------9-----|--------8--|
||o-----7-------|-----------|-----7-------|-----------|
||--0-----------|-----------|-0-----------|-----------|
|
|   H.            H.          H.            H.
||--------------|-----------|-------------|-----------|
||o-------------|-----------|-------------|-----------|
||--------------|-8---------|-------------|-8---------|
||--2-----------|-8---------|-2-----------|-8---------|
||o-2-----------|-6---------|-2-----------|-6---------|
||--0-----------|-----------|-0-----------|-----------|


  E5            Eb5         C5     B5      E5
                                   |-3-|
  Q   E E E E   Q   Q  Q    Q.   E E E E   H.     4x
|-------------|-----------|--------------|--------||
|-----------8-|-7---------|--------------|-------o||
|---------9---|-----8-----|------5-----4-|--------||
|-------9-----|--------8--|----------4---|-2------||
|-----7-------|-----------|-3------2-----|-2-----o||
|-0-----------|-----------|--------------|-0------||
|
| H.            H.          H      Q       H.     4x
|-------------|-----------|--------------|--------||
|-------------|-----------|--------------|-------o||
|-------------|-8---------|-5------4-----|--------||
|-2-----------|-8---------|-5------4-----|-2------||
|-2-----------|-6---------|-3------2-----|-2-----o||
|-0-----------|-----------|--------------|-0------||


  4.
  C5      B5    E5
 6/8
  E E E E E E   S  S E H
|-------------|-------------|
|-------------|-------------|
|-------2-----|-------------|
|---2-5---4-5-|-4--5-4-2----|
|-3-----------|-------------|
|-------------|-------------|
|
| H       Q     H.
|-------------|-------------|
|-------------|-------------|
|-5-------4---|-------------|
|-5-------4---|-2-----------|
|-3-------2---|-2-----------|
|-------------|-0-----------|


   Verse
    E5          Em                 Ebm         C5    G
   6/8
    H     E E    Q    S  S  E Q    Q   Q  Q    Q  Q  Q
||------------|------------------|-----------|----------
||o-----------|------------------|-----------|----------
||------------|-12---11h12p11-9--|-----------|----------
||----------9-|------------------|-----8--9--|----5--5--
||o-------7---|------------------|-6---------|-3-----2--
||--0---------|------------------|-----------|----------
|
|   H.           H.                H.          H     Q
||------------|------------------|-----------|----------
||o-----------|------------------|-----------|----------
||------------|------------------|-----------|-5--------
||--2---------|--5---------------|-4---------|-5--------
||o-2---------|--7---------------|-6---------|-3-----2--
||--0---------|------------------|-----------|-------3--


  E5          Em/B            B5          C5
  H     E E   Q    Q  S S E   Q   Q  Q    Q.   E E E
|-----------|---------------|-----------|--------------||
|-----------|-8---10--7h8-7-|-----------|-------------o||
|---------9-|---------------|-----------|--------------||
|-------9---|---------------|--------0--|-2----2-2-2---||
|-7---------|---------------|-----2-----|-------------o||
|-----------|---------------|-0---------|--------------||
|
| H.          H.              H.          H.
|-----------|---------------|-----------|--------------||
|-----------|---------------|-----------|-------------o||
|-----------|-0-------------|-4---------|-5------------||
|-2---------|-2-------------|-4---------|-5------------||
|-2---------|-2-------------|-2---------|-3-----------o||
|-0---------|---------------|-----------|--------------||


   Verse
    E5        B5        E5        C5
   6/8
    Gtr II
    H.        H.        H.        H.
||----------|---------|---------|---------|
||o---------|---------|---------|---------|
||----------|-4-------|---------|-5-------|
||--2-------|-4-------|-2-------|-5-------|
||o-2-------|-2-------|-2-------|-3-------|
||--0-------|---------|-0-------|---------|
|
|   Gtr III
|   H.        H.        H.        H.
||----------|---------|---------|---------|
||o---------|---------|---------|---------|
||----------|-4-------|---------|-5-------|
||--2-------|-4-------|-2-------|-5-------|
||o-2-------|-2-------|-2-------|-3-------|
||--0-------|---------|-0-------|---------|


  E5        B5        E5   D5   E5
  H.        H.        H    Q    H    +Q
|---------|---------|---------|-------------|
|---------|---------|---------|-------------|
|---------|-4-------|-9----7--|-9----(9)\---|
|-2-------|-4-------|-9----7--|-9----(9)\---|
|-2-------|-2-------|-7----5--|-7----(7)\---|
|-0-------|---------|---------|-------------|
|
| H.        H.        H    Q    H    +Q
|---------|---------|---------|-------------|
|---------|---------|---------|-------------|
|---------|-4-------|-9----7--|-9----(9)\---|
|-2-------|-4-------|-9----7--|-9----(9)\---|
|-2-------|-2-------|-7----5--|-7----(7)\---|
|-0-------|---------|---------|-------------|


  E5        B5        G5        D5
 6/8
  H.        H.        H.        H.
|---------|---------|---------|---------|
|---------|---------|---------|---------|
|---------|-4-------|---------|-7-------|
|-2-------|-4-------|-5-------|-7-------|
|-2-------|-2-------|-5-------|-5-------|
|-0-------|---------|-3-------|---------|
|
| H.        H.        H.        H.
|---------|---------|---------|---------|
|---------|---------|---------|---------|
|---------|-4-------|---------|-7-------|
|-2-------|-4-------|-5-------|-7-------|
|-2-------|-2-------|-5-------|-5-------|
|-0-------|---------|-3-------|---------|


  E5        B5        C5   B5   E5
  H.        H.        H    Q    H.
|---------|---------|---------|--------||
|---------|---------|---------|-------o||
|---------|-4-------|-5----4--|--------||
|-2-------|-4-------|-5----4--|-2------||
|-2-------|-2-------|-3----2--|-2-----o||
|-0-------|---------|---------|-0------||
|
| H.        H.        H    Q    H.
|---------|---------|---------|--------||
|---------|---------|---------|-------o||
|---------|-4-------|-5----4--|--------||
|-2-------|-4-------|-5----4--|-2------||
|-2-------|-2-------|-3----2--|-2-----o||
|-0-------|---------|---------|-0------||


 Guitar Solo
  E5           B5              E5           C5
 6/8
  Gtr IV
   H     E E   H     S S S S   Q.   E E E   S S S E E S S S E
|------------|-5-------------|------------|-------------------|
|-/5-----7h8-|-------8p7h8p7-|-5----5---5-|-------------------|
|------------|---------------|--------5---|-4h5p4-2-4-4h5p4p2-|
|------------|---------------|------------|-------------------|
|------------|---------------|------------|-------------------|
|------------|---------------|------------|-------------------|
|
| Gtr V
|  H.          H.              H.           H.
|------------|---------------|------------|-------------------|
|------------|---------------|------------|-------------------|
|------------|-4-------------|------------|-5-----------------|
|--2---------|-4-------------|-2----------|-5-----------------|
|--2---------|-2-------------|-2----------|-3-----------------|
|--0---------|---------------|-0----------|-------------------|


  E5             B5                   E5     D5      E5
 6/8
                                             |-3-|
   H      E  E    H      S  S  S  S   Q.   E E E E   H    +Q
|--------------|--------------------|--------------|------------|
|--------------|-10-----------------|--------------|------------|
|-/9-----11h12-|--------12p11h12p11-|-9----9-7-9-7-|-9----(9)\--|
|--------------|--------------------|--------------|------------|
|--------------|--------------------|--------------|------------|
|--------------|--------------------|--------------|------------|
|
|  H.             H.                  H      Q       H    +Q
|--------------|--------------------|--------------|------------|
|--------------|--------------------|--------------|------------|
|--------------|--4-----------------|-9------7-----|-9----(9)\--|
|--2-----------|--4-----------------|-9------7-----|-9----(9)\--|
|--2-----------|--2-----------------|-7------5-----|-7----(7)\--|
|--0-----------|--------------------|--------------|------------|


  E5           B5            G5             D5
 6/8
   H      Q     E  E Q  Q     Q    Q   Q     E  E  Q   Q
|------------|-------------|--------------|---------------|
|------------|-------------|--------------|-------10------|
|-/9-----12--|-12p11-7--7--|-/9---12--12--|-12p11-----11--|
|------------|-------------|--------------|---------------|
|------------|-------------|--------------|---------------|
|------------|-------------|--------------|---------------|
|
|  H.           H.            H.             H.
|------------|-------------|--------------|---------------|
|------------|-------------|--------------|---------------|
|------------|--4----------|--------------|--7------------|
|--2---------|--4----------|--5-----------|--7------------|
|--2---------|--2----------|--5-----------|--5------------|
|--0---------|-------------|--3-----------|---------------|


  E5               B5               C5   B5         E5
   Q.    E  E  E    S  S  E Q  Q    H     S  S  E   H.
|----------------|----------------|---------------|-------|
|----------------|----------------|---------------|-------|
|-12----12-12-12-|-11h12p11-7-----|-9----11h12p11-|-9-----|
|----------------|-------------9--|---------------|-------|
|----------------|----------------|---------------|-------|
|----------------|----------------|---------------|-------|
|
|  H.               H.              H     Q         H.
|----------------|----------------|---------------|-------|
|----------------|----------------|---------------|-------|
|----------------|--4-------------|-5-----4-------|-------|
|--2-------------|--4-------------|-5-----4-------|-2-----|
|--2-------------|--2-------------|-3-----2-------|-2-----|
|--0-------------|----------------|---------------|-0-----|


  E5           B5              E5             C5
 6/8
   H     E E   H     S S S S   H       E  E    E   E  E  E  E  E
|------------|-5-------------|-------/11-12-|-12--12-12-12-12-12-|
|-/5-----7h8-|-------8p7h8p7-|-5------------|--------------------|
|------------|---------------|--------------|--------------------|
|------------|---------------|--------------|--------------------|
|------------|---------------|--------------|--------------------|
|------------|---------------|--------------|--------------------|
|
|  H.          H.              H.              H.
|------------|---------------|--------------|--------------------|
|------------|---------------|--------------|--------------------|
|------------|-4-------------|--------------|--5-----------------|
|--2---------|-4-------------|-2------------|--5-----------------|
|--2---------|-2-------------|-2------------|--3-----------------|
|--0---------|---------------|-0------------|--------------------|


  E5                B5                   E5    D5      E5
   H         E  E    E   E  E  E  E  E    H     +Q     H.
|-----------10----|-12-----10----12----|-------------|-------------|
|-10b12========10-|-----10----10----10-|-10r===(10)--|-------------|
|-----------------|--------------------|-------------|-9-----------|
|-----------------|--------------------|-------------|-------------|
|-----------------|--------------------|-------------|-------------|
|-----------------|--------------------|-------------|-------------|
|
|  H.                H.                   H      Q     H     +Q
|-----------------|--------------------|-------------|-------------|
|-----------------|--------------------|-------------|-------------|
|-----------------|--4-----------------|--9------7---|-9-----(9)\--|
|--2--------------|--4-----------------|--9------7---|-9-----(9)\--|
|--2--------------|--2-----------------|--7------5---|-7-----(7)\--|
|--0--------------|--------------------|-------------|-------------|


  E5           B5            G5             D5
 6/8
   H      Q     E  E Q  Q     Q    Q   Q     E  E  Q   Q
|------------|-------------|--------------|---------------|
|------------|-------------|--------------|-------10------|
|-/9-----12--|-12p11-7--7--|-/9---12--12--|-12p11-----11--|
|------------|-------------|--------------|---------------|
|------------|-------------|--------------|---------------|
|------------|-------------|--------------|---------------|
|
|  H.           H.            H.             H.
|------------|-------------|--------------|---------------|
|------------|-------------|--------------|---------------|
|------------|--4----------|--------------|--7------------|
|--2---------|--4----------|--5-----------|--7------------|
|--2---------|--2----------|--5-----------|--5------------|
|--0---------|-------------|--3-----------|---------------|


  E5               B5               C5   B5         E5
   Q.    E  E  E    S  S  E Q  Q    H     S  S  E   H.
|----------------|----------------|---------------|-------|
|----------------|----------------|---------------|-------|
|-12----12-12-12-|-11h12p11-7-----|-9----11h12p11-|-9-----|
|----------------|-------------9--|---------------|-------|
|----------------|----------------|---------------|-------|
|----------------|----------------|---------------|-------|
|
|  H.               H.              H     Q         H.
|----------------|----------------|---------------|-------|
|----------------|----------------|---------------|-------|
|----------------|--4-------------|-5-----4-------|-------|
|--2-------------|--4-------------|-5-----4-------|-2-----|
|--2-------------|--2-------------|-3-----2-------|-2-----|
|--0-------------|----------------|---------------|-0-----|


   Acoustic Part
    Q.=150
    Em                      D#m        Cm
   6/8
    Gtr I
    Q.   E E E   Q  Q  Q    Q  Q  Q    Q  Q  Q
||-------------|-7--------|-6--------|-3---------||
||o----------8-|----8-----|----7-----|----4-----o||
||---------9---|-------9--|-------8--|-------5---||
||-------9-----|----------|----------|-----------||
||o-7----------|----------|----------|----------o||
||-------------|----------|----------|-----------||


   whispered verse
    Cm                     Bm
   6/8
    Q.   E E E   H.        H    Q    H    Q
||-------------|---------|-2-------|----------||
||o----------4-|-5-------|------3--|---------o||
||---------5---|---------|---------|-4--------||
||-------5-----|---------|---------|------4---||
||o-3----------|---------|---------|---------o||
||-------------|---------|---------|----------||


    Em                      D#m        Cm
   6/8
    Q.   E E E   Q  Q  Q    Q  Q  Q    Q  Q  Q
||-------------|-7--------|-6--------|-3---------||
||o----------8-|----8-----|----7-----|----4-----o||
||---------9---|-------9--|-------8--|-------5---||
||-------9-----|----------|----------|-----------||
||o-7----------|----------|----------|----------o||
||-------------|----------|----------|-----------||


   whispered verse
    Cm                     Bm
   6/8
    Q.   E E E   H.        H    Q    H    Q
||-------------|---------|-2-------|----------||
||o----------4-|-5-------|------3--|---------o||
||---------5---|---------|---------|-4--------||
||-------5-----|---------|---------|------4---||
||o-3----------|---------|---------|---------o||
||-------------|---------|---------|----------||


   Scream
    Em                      D#m        Cm
   6/8
    Gtr II
                 TP TP TP   TP TP TP   TP TP TP
    Q.   E E E   Q  Q  Q    Q  Q  Q    Q  Q  Q
||-------------|-7--------|-6--------|-3---------||
||o----------8-|----8-----|----7-----|----4-----o||
||---------9---|-------9--|-------8--|-------5---||
||--9----9-----|----------|----------|-----------||
||o-7----------|----------|----------|----------o||
||-------------|----------|----------|-----------||
|
|   Gtr III
|   Q.   E E E   Q  Q  Q    Q  Q  Q    Q  Q  Q
||-------------|-7--7-----|-6--6-----|-3--3------||
||o----------8-|----8-----|----7-----|----4-----o||
||---------9---|-------9--|-------8--|-------5---||
||--9----9-----|----------|----------|-----------||
||o-7----------|----------|----------|----------o||
||-------------|----------|----------|-----------||


    Cm                     Bm
   6/8
                 TP        TP   TP   TP   TP
    Q.   E E E   H.        H    Q    H    Q
||-------------|---------|-2-------|----------||
||o----------4-|-5-------|------3--|---------o||
||---------5---|---------|---------|-4--------||
||--5----5-----|---------|---------|------4---||
||o-3----------|---------|---------|---------o||
||-------------|---------|---------|----------||
|
|                TP        TP   TP   TP   TP
|   Q.   E E E   H.        H    Q    H    Q
||-------------|---------|-2----2--|----------||
||o----------4-|-5-------|---------|-3-------o||
||---------5---|---------|---------|------4---||
||--5----5-----|---------|---------|----------||
||o-3----------|---------|---------|---------o||
||-------------|---------|---------|----------||


    Em                      D#m        Cm
   6/8
                 TP TP TP   TP TP TP   TP TP TP
    Q.   E E E   Q  Q  Q    Q  Q  Q    Q  Q  Q
||-------------|-7--------|-6--------|-3---------||
||o----------8-|----8-----|----7-----|----4-----o||
||---------9---|-------9--|-------8--|-------5---||
||--9----9-----|----------|----------|-----------||
||o-7----------|----------|----------|----------o||
||-------------|----------|----------|-----------||
|
|   Q.   E E E   Q  Q  Q    Q  Q  Q    Q  Q  Q
||-------------|-7--7-----|-6--6-----|-3--3------||
||o----------8-|----8-----|----7-----|----4-----o||
||---------9---|-------9--|-------8--|-------5---||
||--9----9-----|----------|----------|-----------||
||o-7----------|----------|----------|----------o||
||-------------|----------|----------|-----------||


    Cm                     Bm
   6/8
                 TP        TP   TP   TP   TP
    Q.   E E E   H.        H    Q    H    Q
||-------------|-3-------|-2-------|----------||
||o----------4-|---------|------3--|---------o||
||---------5---|---------|---------|-4--------||
||--5----5-----|---------|---------|------4---||
||o-3----------|---------|---------|---------o||
||-------------|---------|---------|----------||
|
|                TP        TP   TP   TP   TP
|   Q.   E E E   H.        H    Q    H    Q
||-------------|---------|-2----2--|----------||
||o----------4-|-5-------|---------|-3-------o||
||---------5---|---------|---------|------4---||
||--5----5-----|---------|---------|----------||
||o-3----------|---------|---------|---------o||
||-------------|---------|---------|----------||


   Bridge
    Q.=135
    E5             E5                  E5             E5
   8/4
    Q  S. S. E Q   Q  S. S. Q  Q  Q    Q  S. S. E Q   Q  S. S. Q  Q  Q
||-----------------------------------|------------------------------------||
||o----------------------------------|-----------------------------------o||
||--------0--------------0-----------|-------0--------------0-----3--0----||
||--2--2-----------2--2--------------|-2--2-----------2--2-----1----------||
||o-2--------------2-----------3-----|-2--------------2------------------o||
||--0--------1-8\--0--------1-----1--|-0--------1-8\--0-------------------||
|
|   Q  S. S. E Q   Q  S. S. Q  Q  Q    Q  S. S. E Q   Q  S. S. Q  Q  Q
||-----------------------------------|------------------------------------||
||o----------------------------------|-----------------------------------o||
||--------0--------------0-----------|-------0--------------0-----3--0----||
||--2--2-----------2--2--------------|-2--2-----------2--2-----1----------||
||o-2--------------2-----------3-----|-2--------------2------------------o||
||--0--------1-8\--0--------1-----1--|-0--------1-8\--0-------------------||


 Verse
  E5        B5        E5        C5
 6/8
  H.        H.        H.        H.
|---------|---------|---------|---------|
|---------|---------|---------|---------|
|---------|-4-------|---------|-5-------|
|-2-------|-4-------|-2-------|-5-------|
|-2-------|-2-------|-2-------|-3-------|
|-0-------|---------|-0-------|---------|
|
| H.        H.        H.        H.
|---------|---------|---------|---------|
|---------|---------|---------|---------|
|---------|-4-------|---------|-5-------|
|-2-------|-4-------|-2-------|-5-------|
|-2-------|-2-------|-2-------|-3-------|
|-0-------|---------|-0-------|---------|


  E5        B5        E5   D5   E5
  H.        H.        H    Q    H    +Q
|---------|---------|---------|--------------|
|---------|---------|---------|--------------|
|---------|-4-------|-9----7--|-9----(9)\----|
|-2-------|-4-------|-9----7--|-9----(9)\----|
|-2-------|-2-------|-7----5--|-7----(7)\----|
|-0-------|---------|---------|--------------|
|
| H.        H.        H    Q    H    +Q
|---------|---------|---------|--------------|
|---------|---------|---------|--------------|
|---------|-4-------|-9----7--|-9----(9)\----|
|-2-------|-4-------|-9----7--|-9----(9)\----|
|-2-------|-2-------|-7----5--|-7----(7)\----|
|-0-------|---------|---------|--------------|


  E5           B5            G5             D5
 6/8
  Gtr IV
   H      Q     E  E Q  Q     Q    Q   Q     E  E  Q   Q
|------------|-------------|--------------|---------------|
|------------|-------------|--------------|-------10------|
|-/9-----12--|-12p11-7--7--|-/9---12--12--|-12p11-----11--|
|------------|-------------|--------------|---------------|
|------------|-------------|--------------|---------------|
|------------|-------------|--------------|---------------|
|
| Gtr V
|  H.           H.            H.             H.
|------------|-------------|--------------|---------------|
|------------|-------------|--------------|---------------|
|------------|--4----------|--------------|--7------------|
|--2---------|--4----------|--5-----------|--7------------|
|--2---------|--2----------|--5-----------|--5------------|
|--0---------|-------------|--3-----------|---------------|


  E5               B5               C5   B5         E5
   Q.    E  E  E    S  S  E Q  Q    H     S  S  E   H.
|----------------|----------------|---------------|-------|
|----------------|----------------|---------------|-------|
|-12----12-12-12-|-11h12p11-7-----|-9----11h12p11-|-9-----|
|----------------|-------------9--|---------------|-------|
|----------------|----------------|---------------|-------|
|----------------|----------------|---------------|-------|
|
|  H.               H.              H     Q         H.
|----------------|----------------|---------------|-------|
|----------------|----------------|---------------|-------|
|----------------|--4-------------|-5-----4-------|-------|
|--2-------------|--4-------------|-5-----4-------|-2-----|
|--2-------------|--2-------------|-3-----2-------|-2-----|
|--0-------------|----------------|---------------|-0-----|


  E5        B5        E5        C5
 6/8
  Gtr II
  H.        H.        H.        H.
|---------|---------|---------|---------|
|---------|---------|---------|---------|
|---------|-4-------|---------|-5-------|
|-2-------|-4-------|-2-------|-5-------|
|-2-------|-2-------|-2-------|-3-------|
|-0-------|---------|-0-------|---------|
|
| Gtr III
| H.        H.        H.        H.
|---------|---------|---------|---------|
|---------|---------|---------|---------|
|---------|-4-------|---------|-5-------|
|-2-------|-4-------|-2-------|-5-------|
|-2-------|-2-------|-2-------|-3-------|
|-0-------|---------|-0-------|---------|


  E5        B5        E5   D5   E5
  H.        H.        H    Q    H    +Q
|---------|---------|---------|--------------|
|---------|---------|---------|--------------|
|---------|-4-------|-9----7--|-9----(9)\----|
|-2-------|-4-------|-9----7--|-9----(9)\----|
|-2-------|-2-------|-7----5--|-7----(7)\----|
|-0-------|---------|---------|--------------|
|
| H.        H.        H    Q    H    +Q
|---------|---------|---------|--------------|
|---------|---------|---------|--------------|
|---------|-4-------|-9----7--|-9----(9)\----|
|-2-------|-4-------|-9----7--|-9----(9)\----|
|-2-------|-2-------|-7----5--|-7----(7)\----|
|-0-------|---------|---------|--------------|


  E5           B5            G5             D5
 6/8
  Gtr IV
   H      Q     E  E Q  Q     Q    Q   Q     E  E  Q   Q
|------------|-------------|--------------|---------------|
|-/8-----12--|-12p10-7--7--|-/8---12--12--|-12p10-13--10--|
|-/9-----12--|-12p11-7--7--|-/9---12--12--|-12p11-14--11--|
|------------|-------------|--------------|---------------|
|------------|-------------|--------------|---------------|
|------------|-------------|--------------|---------------|
|
| Gtr V
|  H.           H.            H.             H.
|------------|-------------|--------------|---------------|
|------------|-------------|--------------|---------------|
|------------|--4----------|--------------|--7------------|
|--2---------|--4----------|--5-----------|--7------------|
|--2---------|--2----------|--5-----------|--5------------|
|--0---------|-------------|--3-----------|---------------|


  E5               B5               C5   B5         E5
   Q.    E  E  E    S  S  E Q  Q    H     S  S  E   H.
|----------------|----------------|---------------|-------|
|-12----12-12-12-|-10h12p10-7-----|-8----10h12p10-|-8-----|
|-12----12-12-12-|-11h12p11-7--7--|-9----11h12p11-|-9-----|
|----------------|-------------9--|---------------|-------|
|----------------|----------------|---------------|-------|
|----------------|----------------|---------------|-------|
|
|  H.               H.              H     Q         H.
|----------------|----------------|---------------|-------|
|----------------|----------------|---------------|-------|
|----------------|--4-------------|-5-----4-------|-------|
|--2-------------|--4-------------|-5-----4-------|-2-----|
|--2-------------|--2-------------|-3-----2-------|-2-----|
|--0-------------|----------------|---------------|-0-----|


  E5                                              D5
 6/8
   H       Q      E  E Q   Q      Q    Q    Q      E  E  Q   Q
|--------------|---------------|----------------|---------------|
|-/8------12---|-12p10-7---7---|-/8---12---12---|-12p10-13--10--|
|-/9------12---|-12p11-7---7---|-/9---12---12---|-12p11-14--11--|
|--------------|---------------|----------------|---------------|
|--------------|---------------|----------------|---------------|
|--------------|---------------|----------------|---------------|
|
|  Q.   E  E E    Q.     E E E    Q.     E  E E    Q     Q   Q
|--------------|---------------|----------------|---------------|
|--------------|---------------|----------------|---------------|
|-/9----9--9-9-|-/9------9-9-9-|-/9------9--9-9-|--7-----7---7--|
|--9----9--9-9-|--9------9-9-9-|--9------9--9-9-|--7-----7---7--|
|--7----7--7-7-|--7------7-7-7-|--7------7--7-7-|--5-----5---5--|
|--------------|---------------|----------------|---------------|


  C5                                         B5         E5
   Q.    E  E  E    S  S  E Q   Q     H       S  S  E   H.
|----------------|------------------|-----------------|-------|
|-12----12-12-12-|-10h12p10-7-------|-8------10h12p10-|-8-----|
|-12----12-12-12-|-11h12p11-7---7---|-9------11h12p11-|-9-----|
|----------------|--------------9---|-----------------|-------|
|----------------|------------------|-----------------|-------|
|----------------|------------------|-----------------|-------|
|
|  Q.    E  E  E    Q.        E E E   Q.   E  Q         H.
|----------------|------------------|-----------------|-------|
|----------------|------------------|-----------------|-------|
|--5-----5--5--5-|--5---------5-5-5-|-5----5--4-------|-------|
|--5-----5--5--5-|--5---------5-5-5-|-5----5--4-------|-2-----|
|--3-----3--3--3-|--3---------3-3-3-|-3----3--2-------|-2-----|
|----------------|------------------|-----------------|-0-----|


   Outro
                                   1.,2.,3.         4.
    E5   E5          F5   E5   E5   C5              C5
   6/8
    Gtr II
    H    Q    E E Q  Q    H    Q    E E E E E E  4x H.
||----------|-3---------|---------|---------3----||-------|
||o---------|---3-------|---------|-------4-4-4-o||-------|
||----------|-----3-----|---------|-5-5-5-5-5-5--||-5-----|
||--2----2--|--------3--|-2----2--|-5-5-5-5---5--||-5-----|
||o-2----2--|--------3--|-2----2--|-3-3-3-----3-o||-3-----|
||--0----0--|--------1--|-0----0--|--------------||-------|
|
|   Gtr III
|   H    Q    E E Q  Q    H    Q    E E E E E E  4x H.
||-------0--|-3---------|------0--|---------3----||-------|
||o------0--|---3-------|------0--|-------4-4-4-o||-------|
||-------0--|-----3-----|------0--|-5-5-5-5-5-5--||-5-----|
||--2----2--|--------3--|-2----2--|-5-5-5-5---5--||-5-----|
||o-2-------|--------3--|-2-------|-3-3-3-----3-o||-3-----|
||--0-------|--------1--|-0-------|--------------||-------|


   6/8
    H    Q    H    Q    H    Q    a H    Q
||----------|---------|---------|-----------|
||o---------|---------|---------|-----------|
||----------|---------|---------|-----------|
||--2----5--|-2----5--|-2----5--|-5h7----4--|
||o---------|---------|---------|-----------|
||----------|---------|---------|-----------|
|
|   H    Q    H    Q    H    Q    a H    Q
||----------|---------|---------|-----------|
||o------5--|------8--|---------|-----------|
||--4-------|-4-------|-4----4--|-4h5----2--|
||----------|---------|---------|-----------|
||o---------|---------|---------|-----------|
||----------|---------|---------|-----------|


  H    Q    H    Q    H    Q    H    Q
|---------|---------|---------|----------||
|---------|---------|---------|---------o||
|---------|---------|---------|----------||
|-5----2--|-2----5--|-2----4--|-5----0---||
|---------|---------|---------|---------o||
|---------|---------|---------|----------||
|
| H    Q    H    Q    H    Q    H    Q
|---------|---------|---------|----------||
|------5--|------8--|---------|---------o||
|-4-------|-4-------|-4----4--|-5----2---||
|---------|---------|---------|----------||
|---------|---------|---------|---------o||
|---------|---------|---------|----------||


 6/8
   >
   H.        +H.        +H.        +H.
|----------|----------|----------|--------*|
|----------|----------|----------|--------*|
|----------|----------|----------|--------*|
|-/2-------|-(2)------|-(2)------|-(2)----*|
|----------|----------|----------|--------*|
|----------|----------|----------|--------*|
|
|  >
|  H.        +H.        +H.        +H.
|----------|----------|----------|--------*|
|----------|----------|----------|--------*|
|-/4-------|-(4)------|-(4)------|-(4)----*|
|----------|----------|----------|--------*|
|----------|----------|----------|--------*|
|----------|----------|----------|--------*|


Duration Legend
---------------
W - whole; H - half; Q - quarter; E - 8th; S - 16th; T - 32nd; X - 64th; a - acciaccatura
+ - note tied to previous; . - note dotted; .. - note double dotted
Uncapitalized letters represent notes that are staccato (1/2 duration)
Irregular groupings are notated above the duration line
Duration letters will always appear directly above the note/fret number it represents the
duration for.  Duration letters with no fret number below them represent rests.  Multi-
bar rests are notated in the form Wxn, where n is the number of bars to rest for.  Low
melody durations appear below the staff

Tablature Legend
----------------
 h   - hammer-on
 p   - pull-off
 b   - bend
 pb  - pre-bend
 r   - bend release (if no number after the r, then release immediately)
 /\  - slide into or out of (from/to "nowhere")
 s   - legato slide
 S   - shift slide
  - natural harmonic
[n]  - artificial harmonic
n(n) - tapped harmonic
 ~   - vibrato
 tr  - trill
 T   - tap
 TP  - trem. picking
 PM  - palm muting
\n/  - tremolo bar dip; n = amount to dip
 \n  - tremolo bar down
 n/  - tremolo bar up
/n\  - tremolo bar inverted dip
 =   - hold bend; also acts as connecting device for hammers/pulls
 <>  - volume swell (louder/softer)
 x   - on rhythm slash represents muted slash
 o   - on rhythm slash represents single note slash

Misc Legend
-----------
 |  - bar
||  - double bar
||o - repeat start
o|| - repeat end
*|  - double bar (ending)
 :  - bar (freetime)
 $  - Segno
 &  - Coda
Tempo markers -  = BPM(8/16=s8/s16), where s8 = swing 8ths, s16 = swing 16ths





Comments


Popular Dissection tabs & chords
At The Fathomless Depths 1 Tabs
Elisabath Bathori Tabs
Elizabeth Bathory Tabs
Elizabeth Bathory 1 Tabs
In The Cold Winds Of Nowhere Tabs
Infinite Obscurity Tabs
Into Infinite Obscurity Tabs
Shadows Over A Lost Kingdom Tabs
Soulreaper Tabs
Where Dead Angels Lie Acousitc Tabs


Song lyrics



↑ Back to top | Tablatures and chords are parodies/interpretations of the original songs. You may use it for private study, scholarship, research or language learning purposes only
© 2014 AZChords.com Contact us | Privacy policy | DMCA | Add/correct tabs | Request tabs | Top 50 tabs