>
 >
Thorns Of Crimson Death

Thorns Of Crimson Death Guitar Tabs

Dissection - Thorns Of Crimson Death chords, tabs, tablatures, lyrics

Guitar lessons | Add/correct | Request | Top 50 tabs Artists:  A B C D E F G H I J K L M N O P Q R S T U V W X Y Z 0-9

Thorns Of Crimson Death Guitar Tabs – Dissection

CD, Sheet music, Poster

Do you like Thorns Of Crimson Death? Share with your friends now
Tabs
DISSECTION 

THORNS OF CRIMSON DEATH


Normal Tuning (E)

     INTRO (Acoustic Guitar)
E-|------------------------------------------------------------------|
B-|--/17--------15h17-15h17p15-13-12------------13-12--------12------|
G-|------------------------------------------------------------------|
D-|----------------------------------15------14----------------------|
A-|------------------------------------------------------------------|
E-|------------------------------------------------------------------|
  |                                                                  |
  |                                                                  |
E-|------------------------------------------------------------------|
B-|--1-------------1-----------------1-------------0-----------------|
G-|--2-------------2-----------------2-------------0-----------------|
D-|--2-------------2-----------------3-------------2-----------------|
A-|------------------------------------------------------------------|
E-|------------------------------------------------------------------|

E-|---------------------------------------------12--12--10-----------|
B-|--13---12h13p12-----------12-13-----------13-13--13--12-----------|
G-|----------------14----------------------14------------------------|
D-|----------------------------------15--15--------------------------|
A-|------------------------------------------------------------------|
E-|------------------------------------------------------------------|
  |                                                                  |
  |                                                                  |
E-|----------------------------------1------------------0------------|
B-|--1-------------1-----------------1------------------0------------|
G-|--2-------------2-----------------2------------------0------------|
D-|--2-------------2-----------------3------------------2------------|
A-|------------------------------------------------------------------|
E-|------------------------------------------------------------------|

Play INTRO with Chorus and some delay

     RIFF A
E-|-------------------------------------------------1-0-1------1-0-1-|
B-|------1-0-1------1-0-1------1-0-1------1-0-1----------------------|
G-|----------------------------------------------2---------2---------|
D-|--2----------2----------2----------2----------3---------3---------|
A-|--0----------0----------0----------0------------------------------|
E-|------------------------------------------------------------------|
  |                                                                  |
  |  RIFF A-1                                                        |
E-|------------------------------------------------------------------|
B-|------------------------------------------------------------------|
G-|--2----------2----------2----------2------------------------------|
D-|--2----------2----------2----------2----------3---------3---------|
A-|--0----------0----------0----------0----------3---------3---------|
E-|----------------------------------------------1---------1---------|

     (End of RIFF A)
E-|--0-------------------------------|
B-|----3-1-0-------------------------|
G-|----------2-0---------------------| Gtr. 1
D-|--------------3-2-0-2-------------|
A-|----------------------------------|
E-|----------------------------------|
  |                                  |
  |  (End of RIFF A-1)               |
E-|----------------------------------|
B-|----------------------------------|
G-|----------------------------------| Gtr. 2
D-|--2-------------------------------|
A-|--2-------------------------------|
E-|--0-------------------------------|

Play RIFF A and RIFF A-1 two times

     RIFF B 
E-|------------------------------------------------------------------|
B-|------------------------------------------------------------------|
G-|----------------------------------------------------5-----4-------|
D-|--2-2-2-2-2-2-2-2-2-2-2-2-2-2-2-2-2-2-2-2-2-2-3-------------------|
A-|------------------------------------------------------------------|
E-|------------------------------------------------------------------|
  |                                                                  |
  |  RIFF B-1                                                        |
E-|------------------------------------------------------------------|
B-|------------------------------------------------------------------|
G-|--2--2-2-2-2-2--2-2-2-2-2--2-2-2-2-2--2-2-2-2---------------------|
D-|--2--2-2-2-2-2--2-2-2-2-2--2-2-2-2-2--2-2-2-2-3--3-3-3-3-3--3-3---|
A-|--0--0-0-0-0-0--0-0-0-0-0--0-0-0-0-0--0-0-0-0-3--3-3-3-3-3--3-3---|
E-|----------------------------------------------1--1-1-1-1-1--1-1---|

E-|------------------------------------------------------------------|
B-|------------------------------------------------------------------|
G-|--2------------2--------------------------------------------------|
D-|--------3-----------3------------2-2-2-2-2-2-2-2-2-2-2-2-2-2-2-2--|
A-|------------------------------------------------------------------|
E-|------------------------------------------------------------------|
  |                                                                  |
  |                                                                  |
E-|------------------------------------------------------------------|
B-|------------------------------------------------------------------|
G-|---------------------------------2--2-2-2-2-2--2-2-2-2-2--2-2-2-2-|
D-|--3-3-3--3-3-3-3-3--3-3-3-3-3----2--2-2-2-2-2--2-2-2-2-2--2-2-2-2-|
A-|--3-3-3--3-3-3-3-3--3-3-3-3-3----0--0-0-0-0-0--0-0-0-0-0--0-0-0-0-|
E-|--1-1-1--1-1-1-1-1--1-1-1-1-1-------------------------------------|

E-|------------------------------------------------------------------|
B-|--------------------------------3-----5---------------------------|
G-|--------------------5-----4-----------------5-----4tr(5)----------|
D-|--2-2-2-2-2-2-3-----------------------------------------3---------|
A-|------------------------------------------------------------------|
E-|------------------------------------------------------------------|
  |                                                                  |
  |                                                                  |
E-|------------------------------------------------------------------|
B-|------------------------------------------------------------------|
G-|--2--2-2-2-2------------------------------------------------------|
D-|--2--2-2-2-2--3--3-3-3-3-3--3-3-3-3-3--3-3-3-3-3--3-3-3-3---------|
A-|--0--0-0-0-0--3--3-3-3-3-3--3-3-3-3-3--3-3-3-3-3--3-3-3-3---------|
E-|--------------1--1-1-1-1-1--1-1-1-1-1--1-1-1-1-1--1-1-1-1---------|

     (Continue RIFF B)
E-|------------------------------------------------------------------|
B-|------------------------------------------------------------------|
G-|------------------------------------------------------------------|
D-|--2-2-2-2-2-2-2-2-2-2-2-2-0-2-2-2-2-2-2-2-2-2-------5-------------|
A-|----------------------------------------------3-------------------|
E-|------------------------------------------------------------------|
  |                                                                  |      
  |  (Continue RIFF B-1)                                             |
E-|------------------------------------------------------------------|
B-|------------------------------------------------------------------|
G-|--2--2-2-2-2-2--2-2-2-2-2--2-2-2-2-2--2-2-2-2---------------------|
D-|--2--2-2-2-2-2--2-2-2-2-2--2-2-2-2-2--2-2-2-2-3--3-3-3-3--3-3-----|
A-|--0--0-0-0-0-0--0-0-0-0-0--0-0-0-0-0--0-0-0-0-3--3-3-3-3--3-3-----|
E-|----------------------------------------------1--1-1-1-1--1-1-----|

E-|------------------------------------------------------------------|
B-|------------------------------------------------------------------|
G-|------------------------------------------------------------------|
D-|--3-----2-----------------------2-2-2-2-2-2-2-2-2-2-2-2-0-2-2-2---|
A-|--------------------0-----2---------------------------------------|
E-|------------------------------------------------------------------|
  |
  |
E-|------------------------------------------------------------------|
B-|------------------------------------------------------------------|
G-|--------------------------------2--2-2-2-2-2--2-2-2-2-2--2-2-2-2--|
D-|--3-3---2--2-2-2-2-2--2-2-2-2---2--2-2-2-2-2--2-2-2-2-2--2-2-2-2--|
A-|--3-3---2--2-2-2-2-2--2-2-2-2---0--0-0-0-0-0--0-0-0-0-0--0-0-0-0--|
E-|--1-1---0--0-0-0-0-0--0-0-0-0-------------------------------------|

     (End of RIFF B)
E-|------------------------------------------------------------------|
B-|--------------6----------5-----------3----------------------------|
G-|--------------5----------5-----------4----------------------------|
D-|--2-2-2-2-2-3-----------------------------------------------------|
A-|------------------------------------------------------------------|
E-|------------------------------------------------------------------|
  |                                                                  |
  |  (End of RIFF B-1)                                               |
E-|------------------------------------------------------------------|
B-|------------------------------------------------------------------|
G-|--2--2-2-2-2------------------------------------------------------|
D-|--2--2-2-2-2--3--3-3-3-3-3--3-3-3-3--2--2-2-2-2-2--2-2-2-2--------|
A-|--0--0-0-0-0--3--3-3-3-3-3--3-3-3-3--2--2-2-2-2-2--2-2-2-2--------|
E-|--------------1--1-1-1-1-1--1-1-1-1--0--0-0-0-0-0--0-0-0-0--------|

Play RIFF B and RIFF B-1

     RIFF C
E-|-----------------------------------------------|
B-|--5---5-5-5-5----5-5-5--3----3-3-3-3----3-3-3--|
G-|--5---5-5-5-5----5-5-5--4----4-4-4-4----4-4-4--|
D-|-----------------------------------------------|
A-|-----------------------------------------------|
E-|-----------------------------------------------|
  |                                               |
  |  RIFF C-1                                     |
E-|-----------------------------------------------|
B-|-----------------------------------------------|
G-|-----------------------------------------------|
D-|--3--3-3-3-3-3--3-3-3-3-2--2-2-2-2-2--2-2-2-2--|
A-|--3--3-3-3-3-3--3-3-3-3-2--2-2-2-2-2--2-2-2-2--|
E-|--1--1-1-1-1-1--1-1-1-1-0--0-0-0-0-0--0-0-0-0--|

E-|-----------------------------------------------|
B-|--6---6-6-6-6----6-6-6--5----5-5-5-5----5-5-5--|
G-|--5---5-5-5-5----5-5-5--4----4-4-4-4----4-4-4--|
D-|-----------------------------------------------|
A-|-----------------------------------------------|
E-|-----------------------------------------------|
  |                                               |
  |                                               |
E-|-----------------------------------------------|
B-|-----------------------------------------------|
G-|-----------------------------------------------|
D-|--3--3-3-3-3-3--3-3-3-3-2--2-2-2-2-2--2-2-2-2--|
A-|--3--3-3-3-3-3--3-3-3-3-2--2-2-2-2-2--2-2-2-2--|
E-|--1--1-1-1-1-1--1-1-1-1-0--0-0-0-0-0--0-0-0-0--|


E-|-----------------------------------------------|
B-|--5----5-5-5-5----5-5-5-5----5-5-5-6----5------|
G-|--5----5-5-5-5----5-5-5-5----5-5-5-5----5------|
D-|-----------------------------------------------|
A-|-----------------------------------------------|
E-|-----------------------------------------------|
  |                                               |
  |                                               |
E-|-----------------------------------------------|
B-|-----------------------------------------------|
G-|-----------------------------------------------|
D-|--3--3-3-3-3-3--3-3-3-3-3--3-3-3-3-3--3-3-3-3--|
A-|--3--3-3-3-3-3--3-3-3-3-3--3-3-3-3-3--3-3-3-3--|
E-|--1--1-1-1-1-1--1-1-1-1-1--1-1-1-1-1--1-1-1-1--|

     (End of RIFF C)
E-|-----------------------------------------------|
B-|--5----5-5-5-5----5-5-5-5----5-5-5-5----5\-----|
G-|--4----4-4-4-4----4-4-4-4----4-4-4-4----4\-----|
D-|-----------------------------------------------|
A-|-----------------------------------------------|
E-|-----------------------------------------------|
  |                                               |
  |  (End of RIFF C-1)                            |
E-|-----------------------------------------------|
B-|-----------------------------------------------|
G-|-----------------------------------------------|
D-|--2--2-2-2-2-2--2-2-2-2-2--2-2-2-2-2--2-2-2-2--|
A-|--2--2-2-2-2-2--2-2-2-2-2--2-2-2-2-2--2-2-2-2--|
E-|--0--0-0-0-0-0--0-0-0-0-0--0-0-0-0-0--0-0-0-0--|

Play RIFF C and RIFF C-1

     RIFF D
E-|------------------------------------------------------------------|
B-|------------------------------------------------------------------|
G-|--5---5-5-5-4---4-4-4-5---5-5-5-4---4-4-4-5---5-5-5-4---4-4-4-5---|
D-|--2---2-2-2-2---2-2-2-2---2-2-2-2---2-2-2-2---2-2-2-2---2-2-2-2---|
A-|--0---0-0-0-0---0-0-0-0---0-0-0-0---0-0-0-0---0-0-0-0---0-0-0-0---|
E-|------------------------------------------------------------------|

     (End of RIFF D)
E-|---------------------------|
B-|---------------------------|
G-|--5-5-5--------------------| Gtr. 1
D-|--2-2-2--------------------|
A-|--0-0-0-------------3--2---|
E-|----------1--1-1-1---------|
  |          .  . . .         |
  |                           |
E-|---------------------------|
B-|---------------------------|
G-|---------------------------| Gtr. 2
D-|--------------------2--0---|
A-|---------------------------|
E-|----------1--1-1-1---------|
             .  . . .

Play RIFF D

     RIFF E
E-|------------------------------------------------------------------|
B-|------------------------------------------------------------------|
G-|--5---------4---------5-------------------------5----------4------|
D-|--2---2-2-2-2---2-2-2-2---2-2-2-----------------2----2-2-2-2------|
A-|--0---0-0-0-0---0-0-0-0---0-0-0-----------3--2--0----0-0-0-0------|
E-|--------------------------------1--1-1-1--------------------------|
  |      . . .     . . .     . . . .  . . .             . . .        |
  |  RIFF E-1                                                        |
E-|------------------------------------------------------------------|
B-|------------------------------------------------------------------|
G-|--5---------4---------5-------------------------5----------4------|
D-|--2---2-2-2-2---2-2-2-2---2-2-2-----------2--0--2----2-2-2-2------|
A-|--0---0-0-0-0---0-0-0-0---0-0-0-----------------0----0-0-0-0------|
E-|--------------------------------1--1-1-1--------------------------|
         . . .     . . .     . . . .  . . .             . . . 

E-|------------------------------------------------------------------|
B-|------------------------------------------------------------------|
G-|--------5---------------------------------4---------5-------------|
D-|--2-2-2-2---2-2-2-------------------2-2-2-2---2-2-2-2---2-2-2-----|
A-|--0-0-0-0---0-0-0---/8--7-------7\--0-0-0-0---0-0-0-0---0-0-0-----|
E-|--------------------------10--8-----------------------------------|
  |  . . .     . . .                   . . .     . . .     . . .     |  
  |                                                                  |
E-|------------------------------------------------------------------|
B-|------------------------------------------------------------------|
G-|--------5-----------------------5---------4---------5-------------|
D-|--2-2-2-2---2-2-2---3-----------2---2-2-2-2---2-2-2-2---2-2-2-----|
A-|--0-0-0-0---0-0-0---3-----------0---0-0-0-0---0-0-0-0---0-0-0-----|
E-|--------------------1---------------------------------------------|
     . . .     . . .                   . . .     . . .     . . .
     
     (End of RIFF E)
E-|------------------------------------------------------------|
B-|------------------------------------------------------------|
G-|------------------5---------4---------5---------------------|Gtr. 1
D-|------------------2---2-2-2-2---2-2-2-2---2-2-2-3-----3-----|
A-|------------3--2--0---0-0-0-0---0-0-0-0---0-0-0-3---3-3---3-|
E-|--1--1-1-1--------------------------------------1---1-1---1-|
  |  .  . . .            . . .     . . .     . . .     .     . |    
  |  (End of RIFF E-1)                                         |
E-|------------------------------------------------------------|
B-|------------------------------------------------------------|
G-|------------------5---------4---------5---------------------|Gtr. 2
D-|------------2--0--2---2-2-2-2---2-2-2-2---2-2-2-3-----3-----|
A-|------------------0---0-0-0-0---0-0-0-0---0-0-0-3---3-3---3-|
E-|--1--1-1-1--------------------------------------1---1-1---1-|
     .  . . .            . . .     . . .     . . .     .     .     

Play RIFF E and RIFF E-1 two times
Play RIFF E and RIFF E-1 without palm mutings.

     RIFF F
E-|------------------------------------------------------------------|
B-|------------------------------------------------------------------|
G-|------------------------------------------------------------------|
D-|--2-------3-------2-------0-------2-------0-------2--5-2--0-------|
A-|------------------------------3-2-------------3-2-----------3-2-3-|
E-|------------------------------------------------------------------|
  |                                                                  |
  |  RIFF F-1                                                        |
E-|------------------------------------------------------------------|
B-|------------------------------------------------------------------|
G-|--2---------------2-----------------------------------------------|
D-|--2-------3-------2-------3-------2-------3-------2-------3-------|
A-|--0-------3-------0-------3-------2-------3-------2-------3-------|
E-|----------1---------------1-------0-------1-------0-------1-------|

Play RIFF F and RIFF F-1 
Play RIFF E and RIFF E-1 two times
Play RIFF E and RIFF E-1 without palm muting
Play RIFF F and RIFF F-1

     RIFF G
E-|------------------------------------------------------------------|
B-|------------------------------------------------------------------|
G-|------------------------------------------------------------------|
D-|------------------------------------------------------------------|
A-|--------------3h5-5-5p3------------3h5p3--------------3h5-5-5p3---|
E-|--/5--5-3h5-5-----------5-5--3--5---------/5--5-3h5-5-----------5-|
  |                                                                  |
  |  RIFF G-1                                                        |
E-|------------------------------------------------------------------|
B-|------------------------------------------------------------------|
G-|--2---------------------------------------2-----------------------|
D-|--2-----------------------3---------------2-----------------------|
A-|--0-----------------------3---------------0-----------------------|
E-|--------------------------1---------------------------------------|

E-|------------------------------------------------------------------|
B-|------------------------------------------------------------------|
G-|------------------------------------------------------------------|
D-|------------------------------------------------------------------|
A-|----------------------------------------/5--5-5p3-3-3p0-0---------|
E-|--5--3--0----3--3-3-3-3-0--0-0-0-0-1--1---------------------------|
  |                                                                  |
  |                                                                  |
E-|------------------------------------------------------------------|
B-|------------------------------------------------------------------|
G-|------------------------------------------------------------------|
D-|--3----------2---------------------3------------------------------|
A-|--3----------2---------------------3------------------------------|
E-|--1----------0---------------------1------------------------------|

     (End of RIFF G)
E-|------------------------------------|
B-|------------------------------------|
G-|-----99101099-----------------------| Gtr. 1
D-|----------------------/5--5-5p3-0---|
A-|------------------------------------|
E-|--0------------1--1-1---------------|
  |                                    |
  |  (End of RIFF G-1)                 |                 
E-|------------------------------------|
B-|------------------------------------|
G-|------------------------------------| Gtr. 2
D-|--2------------3--------------------|
A-|--2------------3--3-3-3-3-3---------|
E-|--0------------1--1-1-1-1-1---------|
                     . . . . .

Play RIFF G and RIFF G-1 two times, but first time only distorted bass plays the first part of the RIFF G.

     RIFF H
E-|--------------------------------------------------------|
B-|--------------------------------------------------------|
G-|-------9999-10101010-9999------9999-10101010-9999-------|
D-|--7777--------------------7777--------------------------|
A-|--------------------------------------------------------|
E-|--------------------------------------------------------|
  
     RIFF H-1
E-|--------------------------------------------------------|
B-|--------------------------------------------------------|
G-|--8888-7777-----------8888-7777-------------------------|
D-|------------5555-5555-----------5555-5555---------------|
A-|--------------------------------------------------------|
E-|--------------------------------------------------------|

     RIFF H-2
E-|------------------------------------------------------------------|
B-|-------10101010-11111111-10101010------10101010-11111111-10101010-|
G-|--7777----------------------------7777----------------------------|
D-|------------------------------------------------------------------|
A-|------------------------------------------------------------------|
E-|------------------------------------------------------------------|

     RIFF H-3
E-|--------------------------------------------------------|
B-|--9999-8888-----------9999-8888-------------------------|
G-|------------5555-5555-----------5555-5555---------------|
D-|--------------------------------------------------------|
A-|--------------------------------------------------------|
E-|--------------------------------------------------------|
 
     RIFF H-4
E-|------------------------------------------------------------------|
B-|--11111111-10101010-----------11111111-10101010-------------------|
G-|--------------------7777-7777-------------------7777-7777---------|
D-|------------------------------------------------------------------|
A-|------------------------------------------------------------------|
E-|------------------------------------------------------------------|

     RIFF I
E-|--------------------------------------------------------|
B-|--------------------------------------------------------|
G-|--2-----------------------------------------------------|
D-|--2-----------------------------------------------------|
A-|--0-----------------------------------------------------|
E-|--------------------------------------------------------|

     RIFF I-1
E-|--------------------------------------------------------|
B-|--------------------------------------------------------|
G-|--------------------------------------------------------|
D-|--5-----------------------------------5-----------------|
A-|--5-----------------------------------5-----------------|
E-|--3-----------------------------------3-----------------|
  
     RIFF I-2
E-|--------------------------------------------------------|
B-|--------------------------------------------------------|
G-|--------------------------------------------------------|
D-|--777777777777777777777777777777777777777777------------|
A-|--777777777777777777777777777777777777777777------------|
E-|--555555555555555555555555555555555555555555------------|

     RIFF I-3
E-|--------------------------------------------------------|
B-|--------------------------------------------------------|
G-|--------------------------------------------------------|
D-|--555555555555555555555555555555555555555555------------|
A-|--555555555555555555555555555555555555555555------------|
E-|--333333333333333333333333333333333333333333------------|
                                      
     RIFF I-4                                    
E-|--------------------------------------------------------|
B-|--------------------------------------------------------|
G-|--------------------------------------------------------|
D-|--------------------------------------------------------|
A-|-------7777-8888-7777------7777-8888-7777---------------|
E-|--5555----------------5555------------------------------|

     RIFF I-5
E-|--------------------------------------------------------|
B-|--------------------------------------------------------|
G-|--------------------------------------------------------|
D-|------------5555-5555-----------5555-5555---------------|
A-|--6666-5555-5555-5555-6666-5555-5555-5555---------------|
E-|------------3333-3333-----------3333-3333---------------|

     RIFF I-6
E-|--------------------------------------------------------|
B-|--------------------------------------------------------|
G-|--------------------------------------------------------|
D-|-------7777-8888-7777------7777-8888-7777---------------|
A-|--5555----------------5555------------------------------|
E-|--------------------------------------------------------|

     RIFF I-7
E-|--------------------------------------------------------|
B-|--------------------------------------------------------|
G-|------------5555-5555-----------5555-5555---------------|
D-|--6666-5555-5555-5555-6666-5555-5555-5555---------------|
A-|------------3333-3333-----------3333-3333---------------|
E-|--------------------------------------------------------|

     RIFF I-8
E-|--------------------------------------------------------|
B-|--------------------------------------------------------|
G-|------------7777-7777-----------7777-7777---------------|
D-|--8888-7777-7777-7777-8888-7777-7777-7777---------------|
A-|------------5555-5555-----------5555-5555---------------|
E-|--------------------------------------------------------|


Play RIFF H with RIFF I, play RIFF H-1, RIFF H, RIFF H-1 with RIFF I-1
[Play RIFF H with RIFF I-2, RIFF H-1 with RIFF I-3]x2
[Play RIFF H-2 with RIFF I-6, RIFF H-3 with RIFF I-7]x2
[Play RIFF H with RIFF I-4, RIFF H-1 with RIFF I-5, Play RIFF H with RIFF I-4, RIFF H-4 with RIFF I-8]x2
[Play RIFF H-2 with RIFF I-6, RIFF H-3 with RIFF I-7]x2
Play RIFF H with RIFF I-4, RIFF H-1 with RIFF I-5, Play RIFF H with RIFF I-4
Play RIFF H-4 with RIFF I-8, stoping at second D

     RIFF J
E-|------------------------------------------------------------------|
B-|------------------------------------------------------------------|
G-|------------------------------------------------------------------|
D-|--7777-6666-------------------------------7777-6666------66-------|
A-|------------7777-8888-5555-7788-7777-5555-----------8888---88-----|
E-|------------------------------------------------------------------|
  |                                                                  |
  |  RIFF J-1                                                        |
E-|------------------------------------------------------------------|
B-|------------------------------------------------------------------|
G-|--2-------------------3-------------------2-----------------------|
D-|--2-------------------3-------------------2-----------------------|
A-|--0-------------------1-------------------0-----------------------|
E-|------------------------------------------------------------------|

     (End of RIFF J)
E-|----------------------------------|
B-|----------------------------------|
G-|-------66-------------------------| Gtr. 1
D-|--8888----88--7777-77-88----------|
A-|----------------------------------|
E-|----------------------------------|
  |                                  |
  |  (End ofRIFF J-1)                |
E-|----------------------------------|
B-|--3----3-3-3----------------------|
G-|--2----2-2-2--5----5-5-5----------| Gtr. 2
D-|--0----0-0-0--5----5-5-5----------|
A-|--------------3----3-3-3----------|
E-|----------------------------------|

Play RIFF J and RIFF J-1 four times
  
     RIFF K
E-|------------------------------------------------------------------|
B-|------------------------------------------------------------------|
G-|--9999-8888-------------------------------------------------------|
D-|------------9999-10101010-7777-991010-9999-7777-------------------|
A-|------------------------------------------------------------------|
E-|------------------------------------------------------------------|
  |                                                                  |  
  |  RIFF K-1                                                        |
E-|------------------------------------------------------------------|
B-|------------------------------------------------------------------|
G-|--22222222222222222222-----------------------22222222222222222222-|
D-|--22222222222222222222--33333333333333333333-22222222222222222222-|
A-|--00000000000000000000--33333333333333333333-00000000000000000000-|
E-|------------------------11111111111111111111----------------------|

     (End of RIFF K)
E-|----------------------------------|
B-|----------------------------------|
G-|----------------------------------| Gtr. 1
D-|----------------------------------|
A-|----------------------------------|
E-|----------------------------------|
  |                                  | 
  |  (End of RIFF K-1                |
E-|----------------------------------|
B-|----------------------------------|
G-|--7777777777----------------------| Gtr. 2
D-|--7777777777-6666666666-----------|
A-|--5555555555-6666666666-----------|
E-|-------------4444444444-----------|

Play RIFF K and RIFF K-1 two times

     Fill 1
E-|-------------------|
B-|-------------------|
G-|------9~~----------|
D-|-------------------|
A-|-------------------|
E-|-------------------|
  |                   | 
  |                   |
E-|-------------------|
B-|-------------------|
G-|------2------------|
D-|------2------------|
A-|------0------------|
E-|-------------------|

Play Fill 1

     Acoustic guitar
E-|---------------------------5------------------------------10------|
B-|-------8-6---------8--6-----6--------8-6----------8--6------10----|
G-|-------9---7-------9--7--7---7-------9---7--------9--7--7-----10--|
D-|-----9-------7---9----7--7---------9-------7----9----7--7---------|
A-|--/7-----------7------5---------/7------------7------5------------|
E-|------------------------------------------------------------------|
  |                                                                  |
  |                                                                  |
E-|------------------------------------------------------------------|
B-|------------------------------------------------------------------|
G-|-------9-----7-----9-----------------9-----7------9---------------| 
D-|-----9-----7-----9------7----------9-----7------9------7----------|
A-|---7-----5-----7------5---5------7-----5------7------5---5--------|
E-|------------------------------------------------------------------|


                                                               *
E-|------------------------------------------------------------------|
B-|-------8-6---------8-------5-6-------8-6----------8--6---x--------|
G-|-------9---7-------9--7--7----7------9---7--------9--7---x--7-----|
D-|-----9-------7---9----7--7---------9-------7----9----7------------|
A-|--/7-----------7------5---------/7------------7------5------------|
E-|------------------------------------------------------------------|
  |                                                *natural harmonic |
  |                                                                  |
E-|------------------------------------------------------------------|
B-|------------------------------------------------------------------|
G-|-------9-----7-----9-----------------9-----7------9---------------| 
D-|-----9-----7-----9------7----------9-----7------9------7----------|
A-|---7-----5-----7------5---5------7-----5------7------5---5--------|
E-|------------------------------------------------------------------|
           
Play the Acoustic part

     RIFF L
E-|--------------------------5-----------------------------10--------|
B-|------8-6----------8-------6-------8-6----------8---------10------|
G-|----9-----7------9----------7----9-----7------9---7---------10----|
D-|--9---------7--9-----7--7------9---------7--9-----7---7-----------|
A-|--7------------7-----5--5------7------------7-----5---5-----------|
E-|------------------------------------------------------------------|
  |                                                                  |
  |  RIFF L-1                                                        |
E-|------------------------------------------------------------------|
B-|------------------------------------------------------------------|
G-|--9---9-9-7---7-7-9---9-9-7----7-9---9-9-7---7-7-9---9-9-7----10--|
D-|--9---9-9-7---7-7-9---9-9-7----7-9---9-9-7---7-7-9---9-9-7----10--|
A-|--7---7-7-5---5-5-7---7-7-5----5-7---7-7-5---5-5-7---7-7-5----8---|
E-|------------------------------------------------------------------|

     (End of RIFF L)
E-|------------------------------------------------------------------|
B-|------8-6----------8------5-6-------8-6----------8----------------|
G-|----9-----7------9------------7---9-----7------9----10----10------|
D-|--9---------7--9-----7--7-------9---------7--9------10----10------|
A-|--7------------7-----5--5-------7------------7------8-----8-------|
E-|------------------------------------------------------------------|
  |                                                                  |
  |  (End of RIFF L-1)                                               |
E-|------------------------------------------------------------------|
B-|------------------------------------------------------------------|
G-|--9---9-9-7---7-7-9---9-9-7----7-9---9-9-7---7-7-9---9-10----10---|
D-|--9---9-9-7---7-7-9---9-9-7----7-9---9-9-7---7-7-9---9-10----10---|
A-|--7---7-7-5---5-5-7---7-7-5----5-7---7-7-5---5-5-7---7-8-----8----|
E-|------------------------------------------------------------------|

Play RIFF L and RIFF L-1 two times
Play RIFF L-1 two times under the solo

     GUITAR SOLO
E-|------------------------------------------------------------------|
B-|------------------------------------------------------------------|
G-|--/12-10h12p10-9-10--9h10-7h9-------------------------------------|
D-|------------------------------9---9---9------------------7--------|
A-|--------------------------------7---7---7-8---7---7-8-10---8-7----|
E-|------------------------------------------------------------------|
                                   .   .   .         . . .   

E-|----------------------------------12------------------------------|
B-|----------12----12----12----12------10--12----13~--12~------------|
G-|------------10----10----10----10------9---10------------9--10-----|
D-|--9--10-------9-----9-----9-----9-----------9---------------------|
A-|------------------------------------------------------------------|
E-|------------------------------------------------------------------|

E-|------------------------------------------------------------------|
B-|------------------------------------------------------------------|
G-|--9-10-7-9----7---------------------------------------------------|
D-|-----------10---9-10-7-9-10~~--9~--9h10p9p7-9-99999h10p9p7-9------|
A-|------------------------------------------------------------------|
E-|------------------------------------------------------------------|

E-|------------------------------------------------------------------|
B-|----------------------------------------------------8-------------|
G-|----------------------/10-9h10p9-7-9-7---------9-10---9-10~~------|
D-|--9h10p9p7-9---------------------------10-9-10--------------------|
A-|-------------7--8--7----------------------------------------------|
E-|------------------------------------------------------------------|
                .  .

E-|--------------------------12----12----13~--12----12----12----12---|
B-|--12----12----12----12------10----10---------10----10----10----10-|
G-|----10----10----10----10------9-----9----------9-----9-----9-----9|
D-|------9-----9-----9-----9-----------------------------------------|
A-|------------------------------------------------------------------|
E-|------------------------------------------------------------------|

E-|-----------------------------------------------|
B-|--12----12----12---17~~~~~\\\(echo-repeats)----|
G-|----10----10-----------------------------------|
D-|------9-----9----------------------------------|
A-|-----------------------------------------------|
E-|-----------------------------------------------|

Play RIFF L and RIFF L-1 two times

     RIFF M
E-|------------------------------------------------------------------|
B-|------------------------------------------------------------------|
G-|--5----------------5----------5-----5------5-----------------5----|
D-|--7----------------7----------7-----7------7-----------------7----|
A-|------------------------------------------------------------------|
E-|------------------------------------------------------------------|
  |                                                                  |
  |  RIFF M-1                                                        |
E-|------------------------------------------------------------------|
B-|------------------------------------------------------------------|
G-|--2-----------------2---------2-----2-----------------------------|
D-|--2---2-2-2-2---2---2---2-2-2-2-2-2-2-2-2--3-----------------3----|
A-|--0---0-0-0-0---0---0---0-0-0-0-0-0-0-0-0--3---3-3-3-3---3---3----|
E-|-------------------------------------------1---1-1-1-1---1---1----|
         . . . .   .       . . .   . .   . .      . . . .   .            
                        __________                         __________
                       |1st ending                         |2nd ending
E-|-------------------------------|   E-|----------------------------|
B-|-------------------------------|   B-|----------------------------|
G-|--4-----4-----4----------------|   G-|--4------4-----4------------|
D-|--5-----5-----5----------------|   D-|--5------5-----5------------|
A-|-------------------------------|   A-|----------------------------|
E-|-------------------------------|   E-|----------------------------|
  |                               |     |                            |
  |                               |     |                            |
E-|-------------------------------|   E-|----------------------------|
B-|-------------------------------|   B-|----------------------------|
G-|-------------------------------|   G-|----------------------------|
D-|--------3-----3----------------|   D-|--------2-----2-------------|
A-|--3-3-3-3-3-3-3-3-3------------|   A-|--2-2-2-2-2-2-2-2-2---------|
E-|--1-1-1-1-1-1-1-1-1------------|   E-|--0-0-0-0-0-0-0-0-0---------|
     . . .   . .   . .                     . . .   . .   . . 

Play RIFF M and RIFF M-1 two times, taking one ending each time
Play RIFF B and RIFF B-1 
Play RIFF C and RIFF C-1

     RIFF F-2
E-|------------------------------------------------------------------|
B-|------------------------------------------------------------------|
G-|--/9----10----9-----7tr9-------9----7-------9--12-9-7tr9--------9-|
D-|--------------------------10-9---------10-9--------------10--9----|
A-|------------------------------------------------------------------|
E-|------------------------------------------------------------------|

Play RIFF F-1 and RIFF F-2

     ENDING
E-|-------------------|
B-|-------------------|
G-|-------------------| 
D-|-----7-------------|
A-|-----7-------------|
E-|-----5-------------|
  |                   |
  |                   |                 
E-|-------------------|
B-|-------------------|
G-|-----5-------------| 
D-|-----7-------------|
A-|-------------------|
E-|-------------------|





Comments


Popular Dissection tabs & chords
Black Dragon Bass Tabs
Night's Blood Bass Tabs
At The Fathomless Depths Tabs
Crimson Towers Tabs
Elisabath Bathori Tabs
Maha Kali (Intro) Tabs
No Dreams Breed In Breathless Sleep Tabs
Retribution Storm Of The Lights Bane Tabs
Where Dead Angels Lie 2 Tabs
Where Dead Angels Lie Acousitc Tabs


Song lyrics



↑ Back to top | Tablatures and chords are parodies/interpretations of the original songs. You may use it for private study, scholarship, research or language learning purposes only
© 2014 AZChords.com Contact us | Privacy policy | DMCA | Add/correct tabs | Request tabs | Top 50 tabs