» » »

Night's Blood Tabs (ver.2)

Artists:  A B C D E F G H I J K L M N O P Q R S T U V W X Y Z # 

Night's Blood Tabs (ver.2)

Dissection
Rating:
0/5 (0 votes)

Hard to play? Try these video lessons and learn fast.
                ****************************************************************
DISSECTION - Night's Blood -
                           
****************************************************************
Gloria Satanas


IntroRiff
e|-----------------------------------------------------------|
h|-----------------------------------------------------------|
G|-----------------------------------------------------------|
D|-5-4-5-5-4-5---------5-4-----------5-4-5---------5-4-------|
A|-3-2-3-3-2-3---------3-2-5---------3-2-3---------3-2-5-----|
E|-------------0000000-----3-0000000-------0000000-----3-----|

Riff1
e|-----------------------------------------------------------|
h|-8--7-8--5------8-7-5--------------------------------------|
G|------------5----------------------------------------------|
D|-----------------------------------------------------------|
A|-----------------------------------------------------------|
E|-----------------------------------------------------------|
it's not right, but it sounds like the original

second guitar
e|-----------------------------------------------------------|
h|-----------------------------------------------------------|
G|-----------------------------------------------------------|
D|-5---------------------------------------------------------|
A|-7--------6----3-------------------------------------------|
E|----------8----5-------------------------------------------|


Riff2
e|-----------------------------------------------------------|
h|-----------------------------------------------------------|
G|-----------------------------------------------------------|
D|------------------------2h3p2----------4h5p5----5-7--------|
A|-3-5-6-3-6p5p3--333--------------5--------------3-5--------|
E|----------------111--00-------00-3--00-------00------------|
                    pm ~~       ~~    ~~       ~~
e|-----------------------------------------------------------|
h|-----------------------------------------------------------|
G|-----------------------------------------------------------|
D|------------------------9/10----7/9--------4---------------|
A|-3-5-6-3-6p5p3--333-----7/8-----5/7----8/9-2-5-4-----------|
E|----------------111--00------00-----00-6/7---3-2-----------|


Riff3 pick fast
e|-----------------------------------------------------------|
h|-----------------------------------------------------------|
G|-----------------------------------------------------------|
D|-----------------------------------------------------------|
A|-------777999------666888------777999----10-12-------------|
E|-000777------000666------000777------000-8--10-------------|

Riff3a pick fast
e|-----------------------------------------------------------|
h|-----------------------------------------------------------|
G|---------555--------444--------555-------------------------|
D|------555--------444--------555----------------------------|
A|-33333------33333------33333------33333-6--9---------------|
E|----------------------------------------4--7---------------|


Riff4
e|----------------------------------------------------------------------|
h|----------------------------------------------------------------------|
G|----------------------------------------------------------------------|
D|----------9-7h9p7-5------------9-7-10-9----------9-7h9p7-7-------3----|
A|---7h9h10-----------7---7h9h10------------7h9h10-----------5--3-3-3-5-|
E|-0--------------------0-----------------0---------------------1-----3-|


Riff5  pick fast
play 4times           play 4 times
e|------------------||-----------------------------------------|
h|------------------||-----------------------------------------|
G|------------------||-----------------------------------------|
D|------------------||-----------------------------------------|
A|-7--10-7----7-----||-3----6--3-------------------------------|
E|---------6----6-5-||------------3---2------------------------|


Acoustic Part
e|-------------------------------------------------------------|
h|-------------------------------------------------------------|
G|-------------9-----------------------------------------------|
D|-----9---------9---------------------------------------------|
A|---7---7---7-------7-10---9---9h10p9-------------------------|
E|-0-------0-------8------8---8--------10----------------------|

e|-------------------------------------------------------------|
h|-------------------------------------------------------------|
G|-------------9-----------------------------------------------|
D|-----9---------9---------------------------------------------|
A|---7---7---7-------7-10---/12-9h10p9-------------------------|
E|-0-------0-------8------8------------10----------------------|

This is just an idea of what "Great Jon" is might be playing. It sounds 
like it, but it's probably not right! There's a second guitar and some more variations!


Riff6
e|----------------------------------------------------------------
h|----------------------------------------------------------------
G|-------------------------------7--------------------------------
D|-9---9---10---7---9---9---10-------9----9----10----9----7---7---
A|---7---7----7---7---7---7----7---7---10---10----10---10---9---9-
E|----------------------------------------------------------------

  -------------|
  -------------|
  -------------|
  -9/10-9h10p7-|
  -------------|
  -------------|

Ending Riff= Riff1


Listen to the Song for the structure.


---------------------------------------------------------------------------
            
Hard to play? Try these video lessons and learn fast. | Correct




comments powered by Disqus
↑ Back to top | Tablatures and chords are parodies/interpretations of the original songs. You may use it for private study, scholarship, research or language learning purposes only