» » »

Night's Blood Bass tabs (ver.1)

Artists:  A B C D E F G H I J K L M N O P Q R S T U V W X Y Z # 

Night's Blood Bass tabs (ver.1)

Dissection
Rating:
0/5 (0 votes)

Hard to play? Try these video lessons and learn fast.
                -3h2-3-3h2-3-----------------3h2-5-----------------3h2-3----------------
-------------0-0000-0000-000-------0-0000-0000-000-------0-0000-0000-000


------------------------------
------------------------------
-3h2-5------------3h2-3-3h2-3-
-------0-0000-000-------------



----------------------
----------------------
-7...-----------------
------8...-5...-8888--



----------------------------------------------------------
---------------------------------5/4----------------------
-3-5-6-3-6\5-3---------7----------------5/7--3-5-6-3-6\5-3
---------------1111-00---00-6-00-----00-------------------

-------------------------------
-------------------------------
---------7/8----5/7----7/8-----
-1111-00-----00-----00-----8\1-



---------------------------------
-----2-5-------2-----2-5-------1-
---2-------2-3-----2---------3---
-0-------0-------0-------0-0-----



-----5-8-------5-----5-8---------
---5-------5-6-----5-------------
-3-------3-------3-------3-3---2-
-----------------------------4---



-----7-7-5-5-3-3-----7-7-5-5/8-8-----7-7-5-5-3-3---------------
-0-0-------------0-0-------------0-0-------------1-1-1-3-5-5-5-



------7\-2-2-2-2------7\-3-6p5h6-3-------7\-2-2-2-2------3--6--
-0000------------0000---------------0000------------0000-------




----------------
-----5-2----2---
---------1------
-0------------1-



---------------
---------------
-3-5-6-3-------
---------22-11-



-7-7-7-7-7-7-7-7-3-3-3-3-3-3-3-3-3-7-7-7-7-7-7-7-7-----------------10-----
---------------------------------------------------8-8-8-8-8-8-8-8----8---



-7-7-7-7-7-7-7-7-3-3-3-3-3-3-3-3-3-7-7-7-7-7-7-7-7-3-3-3-3-3-3-3-3-5-



---------7-7-7-7-7-7-7-------------------------7-7-7-7-7-7-7-5-5-5-5-5-5-5-5
-0-0-0-0---------------3-3-3-3-2-2-5-7-0-0-0-0------------------------------

---------
---------
---------
-5-5-7-7-



---------/3-3-3-3---------/3-3--------------/3-3-3-3---------/3-3-3-2-
-0-0-0-0----------0-0-0-0------3-5--0-0-0-0----------0-0-0-0----------



---------------------------------
---------------------------------
---------------------------------
-0-0-0-0-0-0-0-0-0-0-0-0-0-0-0-0-



------------------
------------------
-8-8-8-7----------
------------0-----
            
Hard to play? Try these video lessons and learn fast. | Correct




comments powered by Disqus
↑ Back to top | Tablatures and chords are parodies/interpretations of the original songs. You may use it for private study, scholarship, research or language learning purposes only