» » »

Maha Kali Tabs (ver.1)

Artists:  A B C D E F G H I J K L M N O P Q R S T U V W X Y Z # 

Maha Kali Tabs (ver.1)

Dissection
Rating:
0/5 (0 votes)

Hard to play? Try these video lessons and learn fast.
                (Intro)
Dissection - Maha Kali

Only the first 53sec


Hail!!


Guitar 1
-----------------------------------------------------------------|
-----------------------------------------------------------6~----|
--3---2-2-3-2-2-----5\7-----------------5\7----------------------|
--3---2-2-3-2-2-----5\7--------0-3-5----5\7---------^0^3^5-------|
--1---0-0-1-0-0---x-3\5--0-3-5--------x-3\5--^0^3^5--------------|
------------------x-------------------x--------------------------|

------------------------------------------------------|
------------------------------------------------------|
---5\7----------------5\7--10-9-----------------------|
---5\7-------0-3-5----5\7--10-9-----------------------|
-x-3\5-0-3-5--------x-3\5--8--7-----------------------|
-x------------------x---------------------------------|

Guitar 2
------------------------------------------------------|
------------------------------------------------------|
--3---2-2-3-2-2-----5\7-------------------5\7---------|
--3---2-2-3-2-2-----5\7--7-333------------5\7--3-10---|
--1---0-0-1-0-0---x-3\5--7-333----------x-3\5--3-10---|
------------------x------5-111----------x------1-8----|

------------------------------------------------------|
------------------------------------------------------|
---5\7-------------------5\7--10-9--------------------|
---5\7--7-333------------5\7--10-9--------------------|
-x-3\5--7-333----------x-3\5--8--7--------------------|
-x------5-111----------x------------------------------|

Guitar 1
------------------------------------------------------|
-----------2^3-5~---3^2-----------2^3---7~--3^2-------|
------3~-----------------3~----3~---------------3~----|
------------------------------------------------------|
--14\-------------------------------------------------|
------------------------------------------------------|

------------------------------------------------------|
-----2^3-5-3~---0-2-0---0^2---------------------------|
--3~------------------------3~------0--0^2------------|
--------------------------------0-3-------------------|
------------------------------------------------------|
------------------------------------------------------|


Guitar 2
----------------------------------------------------------------------------|
----------------------------------------------------------------------------|
----------------------------------------------------------------------------|
-----------8-8-8-8-----------------------------8-8-8-8----------------------|
-0-0-0-0---8-8-8-8--0-0-0-0-0-0-0-----0-0-0-0--8-8-8-8--0-0-0-0-0-0-0-------|
-1-1-1-1---6-6-6-6--1-1-1-1-1-1-1-----1-1-1-1--6-6-6-6--1-1-1-1-1-1-1-------|

---------------------------------------------------------------------------|
---------------------------------------------------------------------------|
-------------------------------------------------------------3---2-2-3-2-2-|
-----------8-8-8-8---3-3-3-3--8-8-8-8-------------8-8-8-8----3---2-2-3-2-2-|
-0-0-0-0---8-8-8-8---3-3-3-3--8-8-8-8---0-0-0-0---8-8-8-8----1---0-0-1-0-0-|
-1-1-1-1---6-6-6-6---5-5-5-5--6-6-6-6---1-1-1-1---6-6-6-6------------------|

Guitar 1&2

----------------------------------------------------------------------------|
---------------------------------------------------------------8~-----------|
----------------------------------------------------------------------------|
-2---------2---------9\10-10-10--9\10-10-10---4\5-5-5--4\5-5-5--------------|
-2-0-0-0---2-0-0-0---9\10-10-10--9\10-10-10---4\5-5-5--4\5-5-5--------------|
-0^1-1-1---0^1-1-1---7\8--8--8---7\8--8--8----2\3-3-3--2\3-3-3--------------|

----------------------------------------------------------------------------|
----------------------------------------------------------------------------|
---3-3---3-5-5--------------------------------------------------------------|
-5-3-3---3-5-5--------------------------------------------------------------|
-5-1-1---1-3-3--------------------------------------------------------------|
-3--------------------------------------------------------------------------|


Comments?
            
Hard to play? Try these video lessons and learn fast. | Correct




comments powered by Disqus
↑ Back to top | Tablatures and chords are parodies/interpretations of the original songs. You may use it for private study, scholarship, research or language learning purposes only