» » »

Dissection, Into Infinite Obscurity Tabs (ver.1)

Artists:  A B C D E F G H I J K L M N O P Q R S T U V W X Y Z # 

Into Infinite Obscurity Tabs (ver.1)

Dissection Tabs
Rating:
5/5 (5 votes)
Into Infinite Obscurity lessons Tabs too difficult? Try these video lessons and learn fast
                

 
/ The following is the author's own interpretation of the song, to be used - 
/ for studying or private use only                                         - 
 
 
                         DISSECTION - INTO INFINITE OBSCURITY 
                         From the Album SOMBERLAIN 
                         Copyright 1993 No Fashion Records 
 
                              Version 1.3 - June 98 
                                 
Thanks to Jeremy Disten for making me go over this again! :)
For Questions, Comments, Corrections, or Newest Version;
               please contact Rich Broadhead at  
 
Check Out My Web Page, With More Transcriptions On It: 
                
 
join the black/death tab mailing list by emailing  
 
p  - pull off                   h  - hammer on 
~  - vibrato                    /  - slide up to 
 
classical finger notation 
-------------------------
i - index finger
m - middle finger 
a - ring finger 
k - pinky finger 
o - open 
 
I added the way I finger the song, just in case you have trouble 
This song is truly great!!! 
 
Tuning: Normal (EADGBE) 
BPM: ~68

On Average, every bass note is a new beat, though sometimes 2 bass notes
are in one beat.  Also, all bass notes ring out until the next bass note is
played.
 
|-----0-------------------| 
|-1-----0---1-0-----------| 
|---------------2---1-2---| 
|-------------------------| 
|-0-------------------0---| 
|-------3-------1---0-----| 
  i   o o   i o a   i m 
  o     a       i   o o 
 
 
Riff A                                (end of Riff A) 
|-----------------------|---------0-----1-0---0-----| 
|-----0h1-0-1-0---0-----|-----0h1---1-0-----3---1-0-| 
|-2-------------2---1-2-|-2-------------------------| 
|-----------------------|---------2-----3-----------| 
|-0-------------------0-|-0-------------------3---2-| 
|---------3-----1---0---|-------------------3-------| 
  m   o i o i o a o i m   m   o i o i o i o a o i o 
  o       a     i   o o   o       m     a   m a   m 
 
|-----------------------|---------0-----1-0-----| 
|-----0h1-0-1-0---0-----|-----0h1---1-0-----3-1-| 
|-2-------------2---1-2-|-2---------------------| 
|-----------------------|---------2-----3-------| 
|-0-------------------0-|-0-------------------3-| 
|---------3-----1---0---|-------------------3---| 
  m   o i o i o a o i m   m   o i o i o i o a i 
  o       a     i   o o   o       m     a   m a 
 

|------------------------------|-----------------------|
|----------1/3---1-0-----------|-----0h1-0-------------| 
|-1----2/4-------------5/7-2---|-2-----------1-2-------| 
|------------------------------|-----------------2-----| 
|----------0-------------------|---------------0---3-0-| 
|-0----------------3-------1---|-1-------3---0---------| 
  i    m m i i   i o   k k a     a   o m o   i m i a o   
  o        o       i       i     i       a   o o 
  


|---------------------------|-----------------------| 
|-----0h1-0-----------------|-----0h1-0-------------| 
|-2-----------5/7-9-7-5-2---|-2-----------1-2-------| 
|---------------------------|-----------------2-----| 
|-----------------7-5-3-0---|---------------0---3-0-| 
|-1-------3-----------------|-1-------3---0---------| 
  a   o m o   k k a a a i     a   o m o   i m i a o 
  i       i       i i i o     i       a   o o 
 
Riff B                                      (end of Riff B) 
|-------------------------------|-------------------------| 
|-5-5h6p5-3-3h5p3-1-1h3p1-0-----|-1-1h3p1-0-------0-------| 
|-----------------------------0-|-----------0---2---1-2---| 
|-------------------------------|-------------2-----------| 
|-7-------5-------3-------2-----|-0-------------------0---| 
|-------------------------------|---------3-----1---0-----| 
  i i m i i i k i i i k i o   o   i i a i o o m a o i m 
  a       a       a       m       o       a     i   o o 
 
Repeat Riff B 
Play Riff A again                            
                                             
|-----------------------|---------0-----1-0---------------| 
|-----0h1-0-1-0---0-----|-----0h1---1-0-------------------| 
|-2-------------2---1-2-|-2-----------------1h2p1-1/2-----| 
|-----------------------|---------2-----3--------------*--| 
|-0-------------------0-|-0-----------------------0----0--| 
|---------3-----1---0---|-------------------0-------------| 
  m   o i o i o a o i m   m   o i o i o i o i m i i i  o 
  o       a     i   o o   o       m     a   o     o 
                                                     
                                                                                                        
         
*this last note is an octave lower, probably the bass 


For Questions, Comments, Corrections, or Newest Version;
    please contact Richard Broadhead at 

Check Out My Web Page, With More Transcriptions On It:
    
            

comments powered by Disqus
↑ Back to top | Dissection Tabs for Into Infinite Obscurity. Lyrics for acoustic guitar and electric guitar. Tablatures and chords are parodies/interpretations of the original songs. You may use it for private study, scholarship, research or language learning purposes only