>
 >
In The Cold Winds Of The Night

In The Cold Winds Of The Night Guitar Tabs

Dissection - In The Cold Winds Of The Night chords, tabs, tablatures, lyrics

Guitar lessons | Add/correct | Request | Top 50 tabs Artists:  A B C D E F G H I J K L M N O P Q R S T U V W X Y Z 0-9

In The Cold Winds Of The Night Guitar Tabs – Dissection

CD, Sheet music, Poster

Do you like In The Cold Winds Of The Night? Share with your friends now
Tabs
                   DISSECTION - IN THE COLD WINDS OF THE NIGHT
                   From the Album THE SOMBERLAIN
                   Copyright 1993 NO FASHION RECORDS
                   Version 1.0 - June 2001 


For Questions, Comments, Newest Version, or Corrections contact 

Check Out Death Warp, With More Transcriptions On It:

. = Palm Mute
^ = Bend
* = see comment

Tuning - Standard tuning.

intro Riff - I know this is wrong!(0:00 - 0:26)
|-------------------------------------|
|-------------------------------------|
|--4p0-------2p0--4p0-------5p4-------|
|-------4p2------------4p2-------5p2--|
|-------------------------------------|
|-------------------------------------|

Riff 1 (0:26 - 0:51)
|-----------------------------------------------------------------|
|-----------------------------------------------------------------|
|-----------------------------------------------------------------|
|-----------------------------------------------------------10-9--|
|---------7------8------8p7---------------7------8------8p7-------|
|--0--00-----00-----00-------00----0--00-----00-----00------------|
      ..     ..     ..       ..       ..     ..     ..

Riff 2 (* - these are 2..10's...not 1's and 0's) (0:51 - 1:07)
|-------------------------------------------------------------------------------------|
|-------------------------------------------------------------------------------------|
|-------------------------------------------------------------------------------------|
|------------------5--------------------7------------------5--------------------------|
|--2-22------------3---2-22-------------5--2-22------------3--*1010*--9h10p9--7-7-10--|
|--0-00--3h4^p3--1-----0-00--3h4^p3--1-----0-00--3h4^p3--1----------------------------|
     ..                  ..                  ..
Riff 1 (1:07 - 1:31)
|-----------------------------------------------------------------|
|-----------------------------------------------------------------|
|-----------------------------------------------------------------|
|-----------------------------------------------------------10-9--|
|---------7------8------8p7---------------7------8------8p7-------|
|--0--00-----00-----00-------00----0--00-----00-----00------------|
      ..     ..     ..       ..       ..     ..     ..

Riff 2 (* - these are 2..10's...not 1's and 0's) (1:31 - 1:48)
|-------------------------------------------------------------------------------------|
|-------------------------------------------------------------------------------------|
|-------------------------------------------------------------------------------------|
|------------------5--------------------7------------------5--------------------------|
|--2-22------------3---2-22-------------5--2-22------------3--*1010*--9h10p9--7-7-10--|
|--0-00--3h4^p3--1-----0-00--3h4^p3--1-----0-00--3h4^p3--1----------------------------|
     ..                  ..                  ..

Riff 3 (1:48 - 1:56)
|-----------------------------------------------|
|-----------------------------------------------|
|-----------------------------------------------|
|-------------------------9------10-------------|
|--7"----------------7"------77-----------------|
|------8"---4"---------------..-------8"----4"--|

SOLO......what do you expect from a 14 year old!!??

Riff 4 (during solo) (2:04 - 2:12)
|---------------------------------------------------------|
|---------------------------------------------------------|
|--------------------------------------------9------------|
|-----9--10--7--9------7--9--------9--10--7-----10--9--7--|
|--7---------------10-----------7-------------------------|
|---------------------------------------------------------|

Riff 5 (* you get the drift!) (2:12 - 2:19)
|-------------------------------------------------------|
|--t13--11p9---t13--11p9*-------t12--11p9---t12--11p9*--|
|-------------------------------------------------------|
|-------------------------------------------------------|
|-------------------------------------------------------|
|-------------------------------------------------------|

Riff 6 (same as Riff 4, only not during solo!) (2:20 - 2:28)
|---------------------------------------------------------|
|---------------------------------------------------------|
|--------------------------------------------9------------|
|-----9--10--7--9------7--9--------9--10--7-----10--9--7--|
|--7---------------10-----------7-------------------------|
|---------------------------------------------------------|

Riff 7 (personal fav!!) (2:36 - 3:10)
|----------------------------------------------------|
|----------------------------------------------------|
|----------------------------------------------------|
|----------------------------------------------10-9--|
|-----9-10-7------9-10-9------9-10-7------9-10-------|
|--0-----------0-----------0-----------0-------------|

Riff 8 (3:10 - 3:41)
|---------------------|
|---------------------|
|---------------------|
|--9---7---5/4--5/4---|
|--7---5---3/2--3/2---|
|---------------------|

Riff 9
this is sorta a solo bit, but i am working on it. :)

Riff 10 (3:41 - 3:46)
|-----------------------------------------------------------|
|-----------------------------------------------------------|
|---------------------------------9"----7"----5"-4"--5"-4"--|
|--9"----7"----5"-4"--5"-4"---------------------------------|
|-----------------------------------------------------------|
|-----------------------------------------------------------|

Riff 1 (3:47 - 3:55)
|-----------------------------------------------------------------|
|-----------------------------------------------------------------|
|-----------------------------------------------------------------|
|-----------------------------------------------------------10-9--|
|---------7------8------8p7---------------7------8------8p7-------|
|--0--00-----00-----00-------00----0--00-----00-----00------------|
       ..     ..     ..       ..       ..     ..     ..

Riff 11 (3:55 - 4:03)
|-------------------------------------------------------------------|
|-------------------------------------------------------------------|
|------------------------------------------------------------12-11--|
|---------9-----10------10-p9--------------9------10----10p9--------|
|-------------------------------------------------------------------|
|--0--00----00------00---------00---0--00-----00------00------------|
      ..    ..      ..         ..      ..     ..      ..

Riff 2 (* - these are 2..10's...not 1's and 0's) (4:03 - 4:20)
|-------------------------------------------------------------------------------------|
|-------------------------------------------------------------------------------------|
|-------------------------------------------------------------------------------------|
|------------------5--------------------7------------------5--------------------------|
|--2-22------------3---2-22-------------5--2-22------------3--*1010*--9h10p9--7-7-10--|
|--0-00--3h4^p3--1-----0-00--3h4^p3--1-----0-00--3h4^p3--1----------------------------|

I am Aware that there are a few mistakes, if you want to correct them please do so.

Check Out Death Warp, With More Transcriptions On It:





Comments


Popular Dissection tabs & chords
Black Dragon Bass Tabs
Elizabeth Bathory Tabs
Frozen Tabs
Heaven's Damnation Tabs
Infinite Obscurity Tabs
Night's Blood Tabs
No Dreams Breed In Breathless Sleep 2 Tabs
Retribution Storm Of The Lights Bane Tabs
The Somberlain Tabs
Where Dead Angels Lie Acousitc Tabs


Song lyrics



↑ Back to top | Tablatures and chords are parodies/interpretations of the original songs. You may use it for private study, scholarship, research or language learning purposes only
© 2014 AZChords.com Contact us | Privacy policy | DMCA | Add/correct tabs | Request tabs | Top 50 tabs