>
 >
Heaven's Damnation

Heaven's Damnation Guitar Tabs

Dissection - Heaven's Damnation chords, tabs, tablatures, lyrics

Guitar lessons | Add/correct | Request | Top 50 tabs Artists:  A B C D E F G H I J K L M N O P Q R S T U V W X Y Z 0-9

Heaven's Damnation Guitar Tabs – Dissection

CD, Sheet music, Poster

Do you like Heaven's Damnation? Share with your friends now
Tabs


Ver. 0.5 (00/06/28)

Symbols used in this tablature
        h : Hammer on            p : Pulling off
        g : Grissando            s : Slide
        c,hc,1hc : Bend          tr : Trill

Tuning : normal (6 : E)



*** time - 0:00
Part_A
  4 times Repeat
#||---------------------------------------|--------------------------------------|
#||---------------------------------------|--------------------------------------|
#||o--------------------------------------|--------------------------------------|
#||o--------------------5---5----9--------|--------------------------------------|
#||---------------------------------------|--------------------5--------8--------|
#||---0---0----0---0----------------------|--6---6----6---6----------------------|
      1        2        3        4           1        2        3        4

 _______________
|1.3.
|--------------------------------------|---------------------------------------||
|--------------------------------------|---------------------------------------||
|--------------------------------------|--------------------------------------o||
|--------------------5---5----9--------|--------------------------------------o||
|--------------------------------------|---------------------------------------||
|--0---0----0---0----------------------|--7--p0----6--p0----5--p0----3--p0-----||
   1        2        3        4           1        2        3        4

 _______________
|2.4.
|--------------------------------------|---------------------------------------||#
|--------------------------------------|---------------------------------------||#
|--------------------------------------|--------------------------------------o||#
|--------------------5---5----9---9----|--8---8----8---8----------------------o||#
|--------------------------------------|-----------------------------5---------||#
|--0---0----0---0----------------------|--------------------6---6--------------||#
   1        2        3        4           1        2        3        4    (End of Part_A)




*** time - 0:13
Part_B
  4 times Repeat
#||---------------------------------------|--------------------------------------|
#||---------------------------------------|--------------------------------------|
#||o--------------------------------------|--------------------------------------|
#||o--5---5----5---5----5---5----5---5----|--5---5----5---5----5---5----5---5----|
#||---7---7----7---7----7---7----7---7----|--7---7----7---7----7---7----7---7----|
#||---------------------------------------|--8---8----8---8----8---8----8---8----|
      1        2        3        4           1        2        3        4


|--------------------------------------|---------------------------------------||#
|--------------------------------------|---------------------------------------||#
|--------------------------------------|--------------------------------------o||#
|--7---7----7---7----7---7----7---7----|--7---7----7---7----7---7----7---7----o||#
|--9---9----9---9----9---9----9---9----|--9---9----9---9----9---9----9---9-----||#
|--------------------------------------|--10--10---10--10---10--10---10--10----||#
   1        2        3        4           1        2        3        4    (End of Part_B)




*** time - 0:28
Part_C
#||---------------------------------------|--------------------------------------|
#||---------------------------------------|--------------------------------------|
#||o------------__3__-------------__3__---|------------------o-/-----------------|
#||o--7--s6----|--|--|--6--------|--|--|--|-------------------/-o----------------|
#||---5--s4----4--4--4--4--------4--4--4--|--------------------------------------|
#||---------------------------------------|--------------------------------------|
      1        2        3        4           1        2        3        4

 _______________
|1.
|--------------------------------------|---------------------------------------||
|--------------------------------------|---------------------------------------||
|--------------------------------------|--------------------------------------o||
|------------__3__-------------__3__---|--2-----------------------------------o||
|--5--s4----|--|--|--4--------|--|--|--|--0------------------------------------||
|--3--s2----2--2--2--2--------2--2--2--|---------------------------------------||
   1        2        3        4           1        2        3        4

 _______________
|2.
|--------------------------------------|--------------------------------------|#
|--------------------------------------|--------------------------------------|#
|--------------------------------------|--------------------------------------|#
|------------__3__-------------__3__---|--9-----------------7-----------------|#
|--5--s4----|--|--|--4--------|--|--|--|--7-----------------5-----------------|#
|--3--s2----2--2--2--2--------2--2--2--|--------------------------------------|#
   1        2        3        4           1        2        3        4    (End of Part_C)




*** time - 0:36
Part_C'
// Play according to a Part_C.
#||---------------------------------------|--------------------------------------|
#||---------------------------------------|--x2----------------------------------|
#||o--------------------------------------|-(6)----------------------------------|
#||o--------------------6--s7----6--------|-(6)----------------------------------|
#||---4--------4---4----------------------|--x1----------------------------------|
#||---------------------------------------|--------------------------------------|
      1        2        3        4           1        2        3        4

 _______________
|1.
|--------------------------------------|---------------------------------------||
|--------------------------------------|---------------------------------------||
|--------------------------------------|--------------------------------------o||
|--------------------------------------|--------------------------------------o||
|--------------------4--s5----4--------|---------------------------------------||
|--2--------2---2-----------------5^^^^^^^5-----------------4------------------||
   1        2        3        4           1        2        3        4

 _______________
|2.
|--------------------------------------|--------------------------------------|#
|--------------------------------------|--------------------------------------|#
|--------------------------------------|--------------------------------------|#
|--------------------------------------|--------------------------------------|#
|--------------------2--s3----2---7^^^^^^^7-----------------5-----------------|#
|--0--------0---0----------------------|--------------------------------------|#
   1        2        3        4           1        2        3        4    (End of Part_C')




*** time - 0:43
Play Part_B
  4 times Repeat




*** time - 0:58
Part_D
  4 times Repeat
#||---------------------------------------|------------__3__-------------__3__---|
#||----------------------__3__----__3__---|---__3__---|--|--|-----------|--|--|--|
#||o------------__3__---|--|--|--|--|--|--|--|--|--|--4--4--4--5--------4-h5-p4--|
#||o---__3__---|--|--|--9--9--9--5--5--5--|--7--7--7-----------------------------|
#||---|--|--|--7--7--7--------------------|--------------------------------------|
#||---0--0--0-----------------------------|--------------------------------------|
      1        2        3        4           1        2        3        4

 _______________
|1.3.
|--------------------------------------|------------__3__----------------------||
|---------------------__3__----__3__---|---__3__---|--|--|------------__3__----||
|------------__3__---|--|--|--|--|--|--|--|--|--|--4--4--4-----------|--|--|--o||
|---__3__---|--|--|--9--9--9--5--5--5--|--7--7--7-----------5--------4-h5-p4--o||
|--|--|--|--7--7--7--------------------|---------------------------------------||
|--0--0--0-----------------------------|---------------------------------------||
   1        2        3        4           1        2        3        4

 _______________
|2.4.
|--------------------------------------|---------------------------------------||#
|---------------------__3__------------|---------------------------------------||#
|------------__3__---|--|--|-----------|--------------------------------------o||#
|---__3__---|--|--|--9--9--9--5--------|-----------7-----------------4--------o||#
|--|--|--|--7--7--7--------------------|--9---9-------------6---6--------------||#
|--0--0--0-----------------------------|---------------------------------------||#
   1        2        3        4           1        2        3        4    (End of Part_D)




*** time - 1:13
Part_E
  2 times Repeat
#||---------------------------------------|----------------------------------------||
#||---------------------------------------|---------------------__3__--------------||
#||o--------------------------------------|--------------------|--|--|------------o||
#||o--------------------------------------|--------------------3--3--3--3---------o||
#||---2--------2---2----3--------2---2^^^^^^^2---2----2----------------------------||
#||---0--------0---0----1--------0---0^^^^^^^0---0----0----------------------------||
      1        2        3        4           1        2        3        4


|--------------------------------------|---------------------__3__------------|
|--------------------------------------|--------------------|--|--|-----------|
|--------------------------------------|--------------------5--5--5--5--------|
|--------------------------------------|--------------------------------------|
|--2--------2---2----3--------2---2^^^^^^^2---2----2--------------------------|
|--0--------0---0----1--------0---0^^^^^^^0---0----0--------------------------|
   1        2        3        4           1        2        3        4


|--------------------------------------|--------------------------------------|#
|--------------------------------------|--------------------------------------|#
|--------------------------------------|--------------------------------------|#
|--------------------------------------|--------------------------------------|#
|--2--------2---2----3--------2---2----|--------------------------------------|#
|--0--------0---0----1--------0---0----|--------------------------------------|#
   1        2        3        4           1        2        3        4    (End of Part_E)




*** time - 1:20
Play Part_B
  4 times Repeat




*** time - 1:35
Play Part_D
  4 times Repeat


*** time - 1:51
Part_F
#|--------------------------------------|--------------------------------------|#
#|--------------------------------------|--------------------------------------|#
#|--------------------------------------|--------------------------------------|#
#|--------------------------------------|--------------------------------------|#
#|--2-----------------------------------|--------------------------------------|#
#|--0-----------------------------------|--------------------------------------|#
    1        2        3        4           1        2        3        4    (End of Part_F)




*** time - 1:53
Part_G
  6 times Repeat
#||---------------------------------------|--------------------------------------|
#||---------------------------------------|--------------------------------------|
#||o--------------------------------------|--------------------------------------|
#||o-----------5-----------------5--------|------------------------------__3__---|
#||---------------------7-----------------|-----------5--------8--------|--|--|--|
#||---0-----------------------------------|--6--------------------------5-h6-p5--|
      1        2        3        4           1        2        3        4

 _______________
|1.3.5.
|--------------------------------------|---------------------------------------||
|--------------------------------------|---------------------------------------||
|--------------------------------------|--------------------------------------o||
|-----------5-----------------5--------|--------------------------------------o||
|--------------------7-----------------|---------------5-------------8---------||
|--0-----------------------------------|--6------------------------------------||
   1        2        3        4           1        2        3        4

 _______________
|2.4.6.
|--------------------------------------|---------------------------------------||#
|--------------------------------------|---------------------------------------||#
|--------------------------------------|---------------7-------------10-------o||#
|-----------5-----------------5--------|--8------------7-------------10-------o||#
|--------------------7-----------------|--8------------5-------------8---------||#
|--0-----------------------------------|--6------------------------------------||#
   1        2        3        4           1        2        3        4    (End of Part_G)




*** time - 2:19
Part_H
  3 times Repeat
#||---------------------------------------|--------------------------------------|
#||---------------------------------------|--------------------------------------|
#||o-----------------------------9--------|--7-----------------5--------7--------|
#||o-----------------------------9--------|--7-----------------5--------7--------|
#||---2--------------------------7--------|--5-----------------3--------5--------|
#||---0-----------------------------------|--------------------------------------|
      1        2        3        4           1        2        3        4

 _______________
|1.3.
|--------------------------------------|--------------------------------------||
|--------------------------------------|--------------------------------------||
|--4--------------------------4--------|--5------------------__3__-----------o||
|--4--------------------------4--------|--5-----------------|--|--|--2-------o||
|--2--------------------------2--------|--3-----------------2-h3-p2--0--------||
|--------------------------------------|--------------------------------------||
   1        2        3        4           1        2        3        4

 _______________
|2.
|--------------------------------------|---------------------------------------||
|--------------------------------------|---------------------------------------||
|--4-----------------------------------|--------------------------------------o||
|--4-------------------------g9--------|--7--------5--------4-----------------o||
|--2-----------------------------------|---------------------------------------||
|--------------------------------------|---------------------------------------||
   1        2        3        4           1        2        3        4


|--------------------------------------|--------------------------------------|
|--------------------------------------|--------------------------------------|
|--------------------------------------|--------------------------------------|
|-----------------------------5--------|--4-----------------2--------4--------|
|--2-----------------------------------|--------------------------------------|
|--0-----------------------------------|--------------------------------------|
   1        2        3        4           1        2        3        4


|--------------------------------------|--------------------------------------|#
|--------------------------------------|--------------------------------------|#
|--------------------------------------|--------------------------------------|#
|--1-------------------------g9--------|--7-----------------10-------9--------|#
|--------------------------------------|--------------------------------------|#
|--------------------------------------|--------------------------------------|#
   1        2        3        4           1        2        3        4    (End of Part_H)




*** time - 2:37
Part_I
  3 times Repeat
#||---------------------------------------|--------------------------------------|
#||-------------__3__-------------__3__---|--------------------------------------|
#||o---__3__---|-----|---__3__---|-----|--|---__3__------------------------------|
#||o--|-----|--5-----5--|-----|--5-----5--|--|-----|--5--------7--------4--------|
#||---2-----2-----------2-----2--7-----7--|--2-----2-----------3--------3--------|
#||---0-----0-----------0-----0-----------|--0-----0-----------------------------|
      1        2        3        4           1        2        3        4


|--------------------------------------|---------------------------------------||#
|------------__3__-------------__3__---|---------------------------------------||#
|---__3__---|-----|---__3__---|-----|--|---__3__------------------------------o||#
|--|-----|--5-----5--|-----|--5-----5--|--|-----|--5--------5--------4--------o||#
|--2-----2-----------2-----2--7-----7--|--2-----2-----------3--------3---------||#
|--0-----0-----------0-----0-----------|--0-----0------------------------------||#
   1        2        3        4           1        2        3        4    (End of Part_I)




*** time - 2:58
Part_J
  2 times Repeat
#||---------------------------------------|--------------------------------------|
#||---------------------------------------|--------------------------------------|
#||o---__3__----__3__----__3__----__3__---|---__3__----__3__---5--------5--------|
#||o--|-----|--|-----|--|-----|--|-----|--|--|-----|--|-----|--5--------5--------|
#||---2-----2--|-----2^^2-----2--|-----2--|--2-----2--|-----2--3--------3--------|
#||---0-----0--2h3p2-0^^0-----0--2h3p2-0--|--0-----0--2h3p2-0--------------------|
      1        2        3        4           1        2        3        4


|--------------------------------------|---------------------------------------||#
|--------------------------------------|---------------------------------------||#
|---__3__----__3__----__3__----__3__---|---__3__----__3__---5--------4--------o||#
|--|-----|--|-----|--|-----|--|-----|--|--|-----|--|-----|--5--------4--------o||#
|--2-----2--|-----2^^2-----2--|-----2--|--2-----2--|-----2--3--------2---------||#
|--0-----0--2h3p2-0^^0-----0--2h3p2-0--|--0-----0--2h3p2-0---------------------||#
   1        2        3        4           1        2        3        4    (End of Part_J)




*** time - 3:12
Play Part_I
  2 times Repeat




*** time - 3:27
Part_J'
  2 times Repeat
// The 2nd following is piled up.
|--------------------------------------|--------------------------------------|
|------------__3__-------------__3__---|------------__3__---------------------|
|---__3__---|-----|---__3__---|-----|--|---__3__---|-----|--------------------|
|--|-----|--4h5p4----|-----|--4h5p4----|--|-----|--4h5p4----5--------5--------|
|--7-----7--------7^^7-----7--------7--|--7-----7--------7--------------------|
|--------------------------------------|--------------------------------------|
   1        2        3        4           1        2        3        4


|--------------------------------------|--------------------------------------|#
|------------__3__-------------__3__---|------------__3__---------------------|#
|---__3__---|-----|---__3__---|-----|--|---__3__---|-----|--------------------|#
|--|-----|--4h5p4----|-----|--4h5p4----|--|-----|--4h5p4----5--------4--------|#
|--7-----7--------7^^7-----7--------7--|--7-----7--------7--------------------|#
|--------------------------------------|--------------------------------------|#
   1        2        3        4           1        2        3        4    (End of Part_J')




*** time - 3:41
Part_K
#||------------------------------|-----------|-----------------------------|
#||------------------------------|-----------|-----------------------------|
#||o-----------------------------|---o-/-----|-----------------------------|
#||o-----------------------------|----/-o----|--5---5----9---9-------------|
#||------------------------------|-----------|--------------------5---5----|
#||---3---3----7---7----6---6----|-----------|-----------------------------|
      1        2        3                       1        2        3

 _______________                 _______________
|1.                             |2.
|------------------------------||-----------------------------|#
|------------------------------||-----------------------------|#
|-----------------------------o||-----------------------------|#
|-----------------------------o||-----------------------------|#
|--4---4-----------------------||--4---4----------------------|#
|-----------6---6----7---7-----||-----------6---6----5?-------|#
   1        2        3             1        2        3    (End of Part_K)




*** time - 3:46
Play Part_B
  4 times Repeat




*** time - 4:00
Play Part_D
  3 times Repeat




*** time - 4:14
Part_D'
#|--------------------------------------|--------------------------------------|
#|------------__3__----__3__----__3__---|---__3__----__3__----__3__----__3__---|
#|---__3__---|--|--|--|--|--|--|--|--|--|--|--|--|--|--|--|--|--|--|--|--|--|--|
#|--|--|--|--4--4--4--5--5--5--4--4--4--|--5--5--5--7--7--7--5--5--5--4--4--4--|
#|--7--7--7-----------------------------|--------------------------------------|
#|--------------------------------------|--------------------------------------|
    1        2        3        4           1        2        3        4


|--------------------------------------|--------------------------------------|-----------|#
|---------------------__3__------------|--------------------------------------|-----------|#
|------------__3__---|--|--|-----------|--------------------------------------|-----------|#
|---__3__---|--|--|--9--9--9--5--------|-----------7-----------------4--------|-----------|#
|--|--|--|--7--7--7--------------------|--9-----------------6-----------------|--2--------|#
|--0--0--0-----------------------------|--------------------------------------|--0--------|#
   1        2        3        4           1        2        3        4           1    (End of Part_D')


=== END OF TAB ==





Comments


Popular Dissection tabs & chords
Night's Blood Bass Tabs
At The Fathomless Depths 1 Tabs
Elizabeth Bathory 1 Tabs
Elizabeth Bathory Live Tabs
Night's Blood Tabs
No Dreams Breed In Breathless Sleep Tabs
Retribution Storm Of The Lights Bane Tabs
Son Of The Mourning Tabs
The Somberlain Tabs
Where Dead Angels Lie Acousitc Tabs


Song lyrics



↑ Back to top | Tablatures and chords are parodies/interpretations of the original songs. You may use it for private study, scholarship, research or language learning purposes only
© 2014 AZChords.com Contact us | Privacy policy | DMCA | Add/correct tabs | Request tabs | Top 50 tabs