>
 >
Frozen 1

Frozen 1 Guitar Tabs

Dissection - Frozen 1 chords, tabs, tablatures, lyrics

Guitar lessons | Add/correct | Request | Top 50 tabs Artists:  A B C D E F G H I J K L M N O P Q R S T U V W X Y Z 0-9

Frozen 1 Guitar Tabs – Dissection

CD, Sheet music, Poster

Do you like Frozen 1? Share with your friends now
TabsTabs v2
                             DISSECTION

                              "frozen" 

intro        b        d
|----------||-------||-------|
|----------||-------||-------|
|----------||-------||-------|
|--9-8---8-||--7-9-6||-------|
|10----10-9||10-----||10-7---|
|----------||-------||-------|
|
|guit 2      b        c           d               
|----------||-------||----------||------|
|----------||-------||----------||------|
|----------||-------||----------||------|
|----------||-------||----------||------|
|7---9-----||7-9----||2-2-121-1-||--2---|
|-------10-||----10-||0------3-2||3-0---|

vers
|----------------------------||----------------------------|
|----------------------------||----------------------------|
|----------------------------||----------------------------|
|9--9-9-9-9-9--9-9-9-9-9--9-9||5--5-5-5-5-5--5-5-5-5-5--5-5|
|7--7-7-7-7-7--7-7-7-7-7--7-7||3--3-3-3-3-3--3-3-3-3-3--3-3|
|----------------------------||----------------------------|
    m m m m    m m m m    m m     m m m m    m m m m    m m   

|---------------------------|
|---------------------------|
|---------------------------|
|5--5-5-5--5-5-8--8-8-8--8-8|
|3--3-3-3--3-3-6--6-6-6--6-6|
|---------------------------| end vers
    m m    m m    m m    m m

chorus      b       c
|---------||-------|-----|
|---------||-------|-----|
|---------||-------|-----|
|---------||-------|-----|
|2--------||3-5-5-5|3-5-3|
|0--------||1-3-3-3|1-3-1|
|
|guit 2
|--0-0-0-0||-------|-----|
|---0-----||-------|-----|
|---------||-------|-----|
|---------||-------|-----|
|---------||-------|-----|
|---------||-------|-----| end chorus

riff1
|--------|--------|
|--------|--------|
|--------|--------|
|9---5---|9---5-4-|
|7---3---|7-------|
|--------|--------|
guit 2:
E5   C5   E5  C5

riff 2                        b
|---------------------------||-------------------------------|
|---------------------------||-------------------------------|
|---------------------------||-------------------------------|
|-----------------------9-10||-------------------------------|
|7-7-7-7-7-7-7-7-7-7-7-7----||-------------------------------|
| --------------------------||8-8-8-8-8-8-8-8-8-8-8-8-8-8-8-8|
|
|guit 2                       b
|---------------------------||-------------------------------|
|---------------------------||-------------------------------|
|---------------------------||-------------------------------|
|-----------------------9-10||-------------------------------|
|7-7-7-7-7-7-7-7-7-7-7-7----||-------------------------------|
|---------------------------||8-8-8-8-8-8-8-8-8-8-8-8-8-8-8-8|
 
 c
|-----------------------------------|
|-----------------------------------|
|-----------------------------------|
|-----------------------------------|
|9-9-9-9-9-9-9-9-10-10-10-10-9-9-9-9|
|-----------------------------------| 
|
|guit 2
|-----------------------------------|
|-----------------------------------|
|-----------------------------------|
|-----------------------------------|
|-----------------------------------|
|8-8-8-8-8-8-8-8-8--8--8--8--8-8-8-8| end riff 2


riff 3:guit 2 same as riff 2 except ending c:
|-------------------------|
|-------------------------|
|-------------------------|
|-------------------------|
|---------------10--9-10-9|
|8-8-8-8-8-8-8-8----------|

riff 3                                     b
|----------------------------------------||-------------------------------|
|----------------------------------------||-------------------------------|
|----------------------------------------||-------------------------------|
|------------------------------------9-10||-------------------------------|
|10-10-10-10-10-10-10-10-10-10-10-10-----||7-7-7-7-7-7-7-7-7-7-7-7-7-7-7-7|
|----------------------------------------||-------------------------------|
 
 c
|-------------------------|
|-------------------------|
|-------------------------|
|---------------10--9-10-9|
|7-7-7-7-7-7-7-7----------|
|-------------------------| end riff 3

fill
|------------|--------------|----------|
|------------|--------------|----------|
|------------|--------------|----------|
|9---11-12---|9---12-11-8---|5---4-----|
|7---9--10---|7---10-9--6---|3---2-----|
|------------|--------------|-3-2-3-2-3| end fill
                              m m

riff 4
|--------------|-----12----------|----------|--------|
|----9-11-12-9-|12-13--8-10-11-12|9-11-12-9-|--------|
|--------------|-----------------|----------|5---4---|
|--------------|-----------------|----------|--------|
|--------------|-----------------|----------|--------|
|--------------|-----------------|----------|--------| 
E5              C5                E5         C5  B5   

fill 2                       b                   c
|--------------------------||-------------------|-------------------|
|--------------------------||-------------------|-------------------|
|--------------------------||-------------------|-------------------|
|9-9-10-10-9-9-9---9-10-9--||9-9-10-10-7-7-10-10|9-9-10-10----------|
|7-7-8--8--7-7-7---------10||7-7-8--8--5-5-8--8-|7-7-8--8--5-8-12-11|
|--------------------------||-------------------|-------------------| end fill 2

solo
|------------|-----------------|--------|-------|----------|
|-8--7-------|-----------------|--------|-------|----------|
|------------|-----------------|--------|-------|----------|
|---9--9-11-9|-10-9-7----------|--------|7----11|11-12-9---|
|7-7--7------|7------7-7-9-10-9|7-7-9-10|-10-9--|----------|
|------------|-----------------|--------|-------|----------|

|---------------------------12--|----------------------|-----|
|----------------13-12-13-12----|--------13-15-17------|-----|
|-------------------------------|12-14-16--------12----|-----|
|9-11-12-11-12-11---------------|------------------14--|-----|
|-------------------------------|--------------------14|-----|
|-------------------------------|----------------------|12---|





Comments


Popular Dissection tabs & chords
Black Dragon Bass Tabs
At The Fathomless Depths 1 Tabs
Elizabeth Bathory Tabs
Frozen Tabs
Into Infinite Obscurity Tabs
Night's Blood Tabs
Retribution Tabs
Thorns Of Crimson Death Tabs
Where Dead Angels Lie 1 Tabs
Where Dead Angels Lie Acousitc Tabs


Song lyrics



↑ Back to top | Tablatures and chords are parodies/interpretations of the original songs. You may use it for private study, scholarship, research or language learning purposes only
© 2014 AZChords.com Contact us | Privacy policy | DMCA | Add/correct tabs | Request tabs | Top 50 tabs