>
 >
Frozen

Frozen Guitar Tabs

Dissection - Frozen chords, tabs, tablatures, lyrics

Guitar lessons | Add/correct | Request | Top 50 tabs Artists:  A B C D E F G H I J K L M N O P Q R S T U V W X Y Z 0-9

Frozen Guitar Tabs – Dissection

CD, Sheet music, Poster

Do you like Frozen? Share with your friends now
TabsTabs v2


Ver. 1.0 (02/04/20)

Symbols used in this tablature
        h : Hammer on            p : Pulling off
        g : Grissando            s : Slide
        c,hc,1hc : Bend          tr : Trill

Tuning : normal (6 : E)


*** time - 0:00
Part_A
#||-----------------------|------------------------|----------------------|------------------------|
#||-----------------------|------------------------|----------------------|------------------------|
#||o----------------------|--tr--------------------|--------------------o-//-----------------------|
#||o------------9---------|--89-----------9--------|---------------------//-o----------------------|
#||---10------------------|------------10-----9----|----------------------|------------------------|
#||-----------------------|------------------------|----------------------|------------------------|
 ||   1    2    3    4    |  1    2    3      4    |  1    2    3    4    |  1    2    3      4    |
 ||                       |                        |                      |                        |
 ||                       |                        |                      |                        |
#||-----------------------|------------------------|----------------------|------------------------|
#||-----------------------|------------------------|----------------------|------------------------|
#||o----------------------|------------------------|----------------------|------------------------|
#||o----------------------|------------------------|----------------------|---------------4--------|
#||---7-------------------|--9---------5-----------|--7-------------------|--9---------5------5----|
#||-----------------------|------------------------|----------------------|------------------------|
      1    2    3    4       1    2    3      4       1    2    3    4       1    2    3      4     


|----------------------|------------------------|----------------------|------------------------|
|----------------------|------------------------|----------------------|------------tr----------|
|--------------------o-//-----------------------|------------7---------|--9---------67----------|
|---------------------//-o----------------------|----------------------|------------------------|
|----------------------|------------------------|--10------------------|------------------------|
|----------------------|------------------------|----------------------|------------------------|
|  1    2    3    4    |  1    2    3      4    |  1    2    3    4    |  1    2    3      4    |
|                      |                        |                      |                        |
|                      |                        |                      |                        |
|----------------------|------------------------|----------------------|------------------------|
|----------------------|------------------------|----------------------|------------------------|
|----------------------|------------------------|----------------------|--tr--------------------|
|----------------------|------------------------|------------9---------|--89-----------9--------|
|--7-------------------|--9---------5-----------|--7-------------------|------------10-----9----|
|----------------------|------------------------|----------------------|------------------------|
   1    2    3    4       1    2    3      4       1    2    3    4       1    2    3      4     


|----------------------|------------------------|----------------------|------------------------|
|----------------------|------------------------|----------------------|------------------------|
|----------------------|------------------------|----------------------|------------------------|
|--5-------------------|--4---------------------|--5-------------------|--4------------4--------|
|------------7---------|------------5-----------|------------7---------|------------5------4----|
|----------------------|------------------------|----------------------|------------------------|
|  1    2    3    4    |  1    2    3      4    |  1    2    3    4    |  1    2    3      4    |
|                      |                        |                      |                        |
|                      |                        |                      |                        |
|----------------------|------------------------|----------------------|------------------------|
|----------------------|------------------------|----------------------|------------------------|
|----------------------|------------------------|--------------------o-//-----------------------|
|----------------------|------------------------|---------------------//-o----------------------|
|--2---------2---------|--1------------1--------|----------------------|------------------------|
|--0-------------------|------------3------2----|----------------------|------------------------|
   1    2    3    4       1    2    3      4       1    2    3    4       1    2    3      4    


|----------------------|------------------------|----------------------|------------------------|
|----------------------|------------------------|----------------------|------------tr----------|
|----------------------|------------------------|------------7---------|--9---------67----------|
|--5-------------------|--4---------------------|----------------------|------------------------|
|------------7---------|------------5-----------|--10------------------|------------------------|
|----------------------|------------------------|----------------------|------------------------|
|  1    2    3    4    |  1    2    3      4    |  1    2    3    4    |  1    2    3      4    |
|                      |                        |                      |                        |
|                      |                        |                      |                        |
|----------------------|------------------------|----------------------|------------------------|
|----------------------|------------------------|----------------------|------------------------|
|----------------------|------------------------|--------------------o-//-----------------------|
|----------------------|------------------------|---------------------//-o----------------------|
|--2---------2---------|--1------------1--------|----------------------|------------------------|
|--0-------------------|------------3------2----|----------------------|------------------------|
   1    2    3    4       1    2    3      4       1    2    3    4       1    2    3      4    

|----------------------|#
|----------------------|#
|----------------------|#
|----------------------|#
|--2-------------------|#
|--0-------------------|#
   1    2    3    4    (End of Part_A)




*** time - 0:28
Part_B
  Repeat it 4 times.
#||---------------------------------------|--------------------------------------|
#||---------------------------------------|--------------------------------------|
#||o--------------------------------------|--------------------------------------|
#||o--5------------5-------------5--------|--------------------------------------|
#||---7---7-7--7-7-7----7-7-7-7--7---7-7--|--6------------6-------------6--------|
#||---------------------------------------|--8---8-8--8-8-8----8-8-8-8--8---8-8--|
      1        2        3        4           1        2        3        4


|--------------------------------------|---------------------------------------||#
|--------------------------------------|---------------------------------------||#
|--------------------------------------|--------------------------------------o||#
|--5------------5-------------5--------|--------------------4--------4--------o||#
|--7---7-7--7-7-7----7-7-7-7--7---7-7--|--6------------6----6---6-6--6---6-6---||#
|--------------------------------------|--8---8-8--8-8-8-----------------------||#
   1        2        3        4           1        2        3        4    (End of Part_B)



*** time - 0:51
Part_C
  Repeat it 2 times.
#||-------------0---------|----------------------|------------0---------|-----------------------||#
#||--------0---------0----|----------------------|-------0---------0----|-----------------------||#
#||o----------------------|----------------------|----------------------|----------------------o||#
#||o----------------------|----------------------|----------------------|----------------------o||#
#||---2-------------------|--3------5----5--5----|--2-------------------|--3------5-------3-----||#
#||---0-------------------|--1------3----3--3----|--0-------------------|--1------3-------1-----||#
      1    2    3    4       1    2    3    4       1    2    3    4       1    2    3    4  (End of Part_C)


*** time - 1:02
Play Part_B
  Repeat it 2 times.


*** time - 1:14
Play Part_C
  Repeat it 2 times.


*** time - 1:25
Part_D
  Repeat it 2 times.
#||-----------------------|----------------------|----------------------|-----------------------||#
#||-----------------------|----------------------|----------------------|-----------------------||#
#||o----------------------|----------------------|----------------------|------------tr--------o||#
#||o--9-------------------|--5-------------------|----------------------|--5---------45--------o||#
#||---7-------------------|--3-------------------|--2-------------------|--3--------------------||#
#||-----------------------|----------------------|--0-------------------|-----------------------||#
      1    2    3    4       1    2    3    4       1    2    3    4       1    2    3    4  (End of Part_D)


*** time - 1:37
Part_E
#||---------------------------------------|--------------------------------------|
#||---------------------------------------|--------------------------------------|
#||o--------------------------------------|--------------------------------------|
#||o-----------------------------9--h10---|--------------------------------------|
#||---7-7-7-7--7-7-7-7--7-7-7-7-----------|--------------------------------------|
#||---------------------------------------|--8-8-8-8--8-8-8-8--8-8-8-8--8-8-8-8--|
 ||   1        2        3        4        |  1        2        3        4        |
 ||                                       |                                      |
 ||                                       |                                      |
#||---------------------------------------|--------------------------------------|
#||---------------------------------------|--------------------------------------|
#||o--------------------------------------|--------------------------------------|
#||o-----------------------------9--h10---|--------------------------------------|
#||---7-7-7-7--7-7-7-7--7-7-7-7-----------|--------------------10101010-9-9-9-9--|
#||---------------------------------------|--8-8-8-8--8-8-8-8--------------------|
      1        2        3        4           1        2        3        4

 ______________
|1.
|--------------------------------------|---------------------------------------||
|--------------------------------------|---------------------------------------||
|--------------------------------------|--------------------------------------o||
|-----------------------------9--h10---|--------------------------------------o||
|--7-7-7-7--7-7-7-7--7-7-7-7-----------|--9-9-9-9--9-9-9-9--10101010-9-9-9-9---||
|--------------------------------------|---------------------------------------||
|  1        2        3        4        |  1        2        3        4         ||
|                                      |                                       ||
|                                      |                                       ||
|--------------------------------------|---------------------------------------||
|--------------------------------------|---------------------------------------||
|--------------------------------------|--------------------------------------o||
|-----------------------------9--h10---|--------------------------------------o||
|--7-7-7-7--7-7-7-7--7-7-7-7-----------|--9-9-9-9--9-9-9-9--10101010-9-9-9-9---||
|--------------------------------------|---------------------------------------||
   1        2        3        4           1        2        3        4

 ______________
|2.
|--------------------------------------|--------------------------------------|
|--------------------------------------|--------------------------------------|
|--------------------------------------|------------------------------__3__---|
|-----------------------------9--h10---|-----------------------------|--|--|--|
|--7-7-7-7--7-7-7-7--7-7-7-7-----------|--------------------10-------9-h10p9--|
|--------------------------------------|--8-8-8-8--8-8-8-8--------------------|
|  1        2        3        4        |  1        2        3        4        |
|                                      |                                      |
|                                      |                                      |
|--------------------------------------|--------------------------------------|
|--------------------------------------|--------------------------------------|
|--------------------------------------|------------------------------__3__---|
|-----------------------------9--h10---|-----------------------------|--|--|--|
|--7-7-7-7--7-7-7-7--7-7-7-7-----------|--------------------10-------9-h10p9--|
|--------------------------------------|--8-8-8-8--8-8-8-8--------------------|
   1        2        3        4           1        2        3        4

  Repeat it 2 times.
||---------------------------------------|--------------------------------------|
||---------------------------------------|--------------------------------------|
||o--------------------------------------|--------------------------------------|
||o-----------------------------9--h10---|--------------------------------------|
||---10101010-10101010-10101010----------|--7-7-7-7--7-7-7-7--7-7-7-7--7-7-7-7--|
||---------------------------------------|--------------------------------------|
||   1        2        3        4        |  1        2        3        4        |
||                                       |                                      |
||                                       |                                      |
||---------------------------------------|--------------------------------------|
||---------------------------------------|--------------------------------------|
||o--------------------------------------|--------------------------------------|
||o-----------------------------9--h10---|--------------------------------------|
||---7-7-7-7--7-7-7-7--7-7-7-7-----------|--------------------------------------|
||---------------------------------------|--8-8-8-8--8-8-8-8--8-8-8-8--8-8-8-8--|
     1        2        3        4           1        2        3        4


|--------------------------------------|---------------------------------------||#
|--------------------------------------|------------------------------__3__----||#
|--------------------------------------|-----------------------------|--|--|--o||#
|-----------------------------9--h10---|--------------------10-------9-h10p9--o||#
|--10101010-10101010-10101010----------|--7-7-7-7--7-7-7-7---------------------||#
|--------------------------------------|---------------------------------------||#
|  1        2        3        4        |  1        2        3        4         ||
|                                      |                                       ||
|                                      |                                       ||
|--------------------------------------|---------------------------------------||#
|--------------------------------------|---------------------------------------||#
|--------------------------------------|-------------------------------__3__--o||#
|-----------------------------9--h10---|------------------------------|--|--|-o||#
|--7-7-7-7--7-7-7-7--7-7-7-7-----------|--------------------10--------9-h10p9--||#
|--------------------------------------|--8-8-8-8--8-8-8-8---------------------||#
   1        2        3        4           1        2        3        4    (End of Part_E)


*** time - 2:00
Part_F
#|----------------------|----------------------|----------------------|----------------------|
#|----------------------|----------------------|----------------------|----------------------|
#|----------------------|----------------------|----------------------|----------------------|
#|--2~---2~---2~---2~---|--2~---2~---2~---4~---|--4~---4~---4~---4~---|--4~---4~---4~---4~---|
#|--2~---2~---2~---2~---|--2~---2~---2~---4~---|--4~---4~---4~---4~---|--4~---4~---4~---4~---|
#|--0~---0~---0~---0~---|--0~---0~---0~---2~---|--2~---2~---2~---2~---|--2~---2~---2~---2~---|
    1    2    3    4       1    2    3    4       1    2    3    4       1    2    3    4    


|----------------------|----------------------|----------------------|----------------------|#
|----------------------|----------------------|----------------------|----------------------|#
|---9------------------|-------------12---11--|---8------------------|----------------------|#
|---9------------------|-------------12---11--|---8------------------|----------------------|#
|---7------------------|-------------10---9---|---6------------------|----------------------|#
|----------------------|----------------------|----------------------|----------------------|#
    1    2    3    4       1    2    3    4       1    2    3    4       1    2    3    4   (End of Part_F)


*** time - 2:10
Part_G
#||-----------------------|----------------------|----------------------|--------------------------|
#||-----------------------|----------------------|----------------------|--------------------------|
#||o----------------------|----------------------|----------------------|-------9------------------|
#||o----------------------|----------------------|-----------------9~---|--10~----------------7h9--|
#||------------------6~---|--9~---10~--7~--------|----------------------|------------9-h10p9-------|
#||---0~------------------|----------------------|--8~------------------|--------------------------|
      1    2    3    4       1    2    3    4       1    2    3    4       1    2    3        4     

                                               ______________
                                              |1.
|----------------------|----------------------|----------------------|-----------------------||
|----------------------|----------------------|----------------------|-----------------------||
|----------------------|----------------------|----------------------|----------------------o||
|----------------------|----------------------|-----------------10~--|--9~------------------o||
|-----------------6~---|--9~---10~--7~--------|--10~-----------------|-----------------------||
|--0~------------------|----------------------|----------------------|-----------------------||
|  1    2    3    4    |  1    2    3    4    |  1    2    3    4    |  1    2    3    4     ||
|                      |                      |                      |                       ||
|                      |                      |                      |                       ||
|----------------------|----------------------|----------------------|-----------------------||
|----------------------|----------------------|----------------------|-----------------------||
|----------------------|----------------------|----------------------|----------------------o||
|----------------------|----------------------|----------------------|----------------------o||
|-----------------6~---|--9~---10~--7~--------|----------------------|-----------------------||
|--0~------------------|----------------------|--8~-------------11~--|--8~-------------------||
   1    2    3    4       1    2    3    4       1    2    3    4       1    2    3    4     


 ______________
|2.
|----------------------|----------------------|#
|----------------------|----------------------|#
|----------------------|----------------------|#
|--9~------------------|--7-------------------|#
|----------------------|----------------------|#
|----------------------|----------------------|#
|  1    2    3    4    |  1    2    3    4    |
|                      |                      |
|                      |                      |
|----------------------|----------------------|#
|----------------------|----------------------|#
|----------------------|----------------------|#
|----------------------|----------------------|#
|----------------------|----------------------|#
|--8~-------------11~--|--8~------------------|#
   1    2    3    4       1    2    3    4  (End of Part_G) 


*** time - 2:29
Part_H
#|----------------------|----------------------|#
#|----------------------|----------------------|#
#|--5-------------------|--4---------2~---4----|#
#|--5---------5----4----|--4-------------------|#
#|--3---------5----4----|--2-------------------|#
#|------------3----2----|----------------------|#
 |  1    2    3    4    |  1    2    3    4    |
 |                      |                      |
 |                      |                      |
#|----------------------|----------------------|#
#|----------------------|----------------------|#
#|--5-------------------|--4-------------------|#
#|--5---------5----4----|--4---------4~---5----|#
#|--3---------5----4----|--2-------------------|#
#|------------3----2----|----------------------|#
    1    2    3    4       1    2    3    4  (End of Part_H) 



*** time - 2:32
Part_I
#||-----------------------|----------------------|----------------------|--------------------------|
#||-----------------------|----------------------|----------------------|--------------------------|
#||o----------------------|----------------------|----------------------|-------9------------------|
#||o----------------------|----------------------|-----------------9~---|--10~----------------7h9--|
#||------------------6~---|--9~---10~--7~--------|----------------------|------------9-h10p9-------|
#||---0~------------------|----------------------|--8~------------------|--------------------------|
      1    2    3    4       1    2    3    4       1    2    3    4       1    2    3        4     

|----------------------|----------------------|----------------------|----------------------|
|----------------------|----------------------|----------------------|----------------------|
|----------------------|----------------------|----------------------|----------------------|
|----------------------|----------------------|-----------------10~--|--9~------------------|
|-----------------6~---|--9~---10~--7~--------|--10~-----------------|----------------------|
|--0~------------------|----------------------|----------------------|----------------------|
|  1    2    3    4    |  1    2    3    4    |  1    2    3    4    |  1    2    3    4    |
|                      |                      |                      |                      |
|                      |                      |                      |                      |
|----------------------|----------------------|----------------------|----------------------|
|----------------------|----------------------|----------------------|----------------------|
|----------------------|----------------------|----------------------|----------------------|
|----------------------|----------------------|----------------------|----------------------|
|-----------------6~---|--9~---10~--7~--------|----------------------|----------------------|
|--0~------------------|----------------------|--8~-------------11~--|--8~------------------|
   1    2    3    4       1    2    3    4       1    2    3    4       1    2    3    4     


|----------------------|----------------------|----------------------|----------------------|
|----------------------|----------------------|----------------------|----------------------|
|----------------------|----------------------|----------------------|-------9--------------|
|----------------------|----------------------|-----------------9----|--10-------------7h9--|
|-----------------6----|--9----10---7---------|----------------------|------------10--------|
|--0-------------------|----------------------|--8-------------------|----------------------|
|  1    2    3    4    |  1    2    3    4    |  1    2    3    4    |  1    2    3    4    |
|                      |                      |                      |                      |
|                      |                      |                      |                      |
|----------------------|----------------------|----------------------|----------------------|
|----------------------|----------------------|----------------------|----------------------|
|--9-------------------|----------------------|--5-------------------|----------------------|
|--9-------------------|----------------------|--5-------------------|----------------------|
|--7-------------------|----------------------|--3-------------------|----------------------|
|----------------------|----------------------|----------------------|----------------------|
   1    2    3    4       1    2    3    4       1    2    3    4       1    2    3    4     

|----------------------|----------------------|----------------------|----------------------|
|----------------------|----------------------|----------------------|----------------------|
|----------------------|----------------------|----------------------|----------------------|
|----------------------|----------------------|--9-------------------|--7-------------------|
|-----------------6----|--9----10---7---------|----------------------|----------------------|
|--0-------------------|----------------------|----------------------|----------------------|
|  1    2    3    4    |  1    2    3    4    |  1    2    3    4    |  1    2    3    4    |
|                      |                      |                      |                      |
|                      |                      |                      |                      |
|----------------------|----------------------|----------------------|----------------------|
|----------------------|----------------------|----------------------|----------------------|
|--9-------------------|----------------------|--5-------------------|--4-------------------|
|--9-------------------|----------------------|--5-------------------|--4-------------------|
|--7-------------------|----------------------|--3-------------------|--2-------------------|
|----------------------|----------------------|----------------------|----------------------|
   1    2    3    4       1    2    3    4       1    2    3    4       1    2    3    4  (End of Part_I)


*** time - 2:50
Part_J
  Repeat it 2 times.
#||-----------------------|--------------------------|----------------------|----------------------|
#||-----------------------|--------------------------|----------------------|----------------------|
#||o--9---------10--------|--9-----------------------|--9---------10--------|----------------------|
#||o--9---------10--------|--9---------9-h10p9-------|--9---------10--------|----------------------|
#||---7---------8---------|--7------------------10---|--7---------8---------|--5-5--5-5--8-8--8-8--|
#||--------0-0-------0-0--|-------0-0----------------|-------0-0-------0-0--|----------------------|
      1    2    3    4       1    2    3        4       1    2    3    4       1    2    3    4     

|----------------------|--------------------------|----------------------|------------------------||#
|----------------------|--------------------------|----------------------|------------------------||#
|--9---------10--------|--9-----------------------|--9---------10--------|-----------------------o||#
|--9---------10--------|--9---------9-h10p9-------|--9---------10--------|------------7----6h7p6-o||#
|--7---------8---------|--7------------------10---|--7---------8---------|--8-8--8-8--------------||#
|-------0-0-------0-0--|-------0-0----------------|-------0-0-------0-0--|------------------------||#
   1    2    3    4       1    2    3        4       1    2    3    4       1    2    3    4  (End of Part_J)


*** time - 3:04
Play Part_C
  Repeat it 2 times.


*** time - 3:15
Part_K
// Rythm guitar is the same as Part_A.
#|--------------------------------------|--------------------------------------|
#|--------------------------------------|--------------------------------------|
#|------12------------11----------------|--------------------------------------|
#|--9--------9---9--------9----9h10p9---|------10---9--------9-----------------|
#|--------------------------------------|--10-----------10-------10---9--------|
#|--------------------------------------|--------------------------------------|
    1        2        3        4           1        2        3        4

|--------------------------------------|---_____3_____------------------------|
|---------------------_____3_____------|--|-----|-----|-----------------------|
|--------------------|-----|-----|-----|--7-----|-----|-----12----------------|
|--------------------|-----|-----7-----|--------10----9-----------------------|
|--7------------7----9-----10----------|--------------------------------------|
|--------------------------------------|--------------------------------------|
   1        2        3        4           1        2        3        4

|--------------------------------------|--------------------8--------7-h8-p7--|
|--------------------------------------|--7---8----7h8p7----------------------|
|--11-------12--9-------------9--------|----------------9---------------------|
|--------------------------------------|--------------------------------------|
|--------------------------------------|--------------------------------------|
|--------------------------------------|--------------------------------------|
   1        2        3        4           1        2        3        4

|--12----------------------------------|-----------7---10----_____3_____------|----|#
|--------------------------------------|--7h8-10------------|-----|-----|-----|----|#
|--------------------------------------|--------------------9-----|-----|-----|----|#
|--------------------------------------|--------------------------10----9-----|--7-|#
|--------------------------------------|--------------------------------------|----|#
|--------------------------------------|--------------------------------------|----|#
   1        2        3        4           1        2        3        4    (End of Part_K)


*** time - 3:26
Play Part_A
  Repeat it 2 times.



*** time - 3:38
Part_L
#|----------------------|#
#|----------------------|#
#|----------------------|#
#|--2-------------------|#
#|--2-------------------|#
#|--0-------------------|#
    1    2    3    4  (End of Part_L)


=== END OF TAB ===





Comments


Popular Dissection tabs & chords
Black Horizons Tabs
Elisabath Bathori Tabs
Elizabeth Bathory Tabs
Elizabeth Bathory 1 Tabs
Infinite Obscurity Tabs
Night's Blood Tabs
Night's Blood 1 Tabs
Unhallowed Tabs
Where Dead Angels Lie 2 Tabs
Where Dead Angels Lie Acousitc Tabs


Song lyrics



↑ Back to top | Tablatures and chords are parodies/interpretations of the original songs. You may use it for private study, scholarship, research or language learning purposes only
© 2014 AZChords.com Contact us | Privacy policy | DMCA | Add/correct tabs | Request tabs | Top 50 tabs