» » »

Dissection, Elizabeth Bathori Tabs (ver.1)

Artists:  A B C D E F G H I J K L M N O P Q R S T U V W X Y Z # 

Elizabeth Bathori Tabs (ver.1)

Dissection Tabs
Rating:
1/5 (1 vote)
Elizabeth Bathori lessons Tabs too difficult? Try these video lessons and learn fast
                                                ELIZABETH BATHORY
                            As recorded by Dissection
     (From the 1995 Album STORM OF THE LIGHT'S BANE / WHERE DEAD ANGELS LIE)

Words and Music by Tormentor
Arranged by Dissection

Gtr I (E A D G B E) - 'Intro Guitar Acoustic'
Gtr II (E A D G B E) - 'Lead Guitar'

 Intro (Acoustic)
  Q=165
  E5                        Gadd11/C      Bm7/D
 4/4
  Gtr I
  E E E E E E E E   E E E E E E E E   E E E E E E E E
|-----------------|-----------------|-----------------|
|-----------------|---------------0-|-----------0-----|
|-------9---------|---9---------5---|-5-------7---7---|
|-----9---9-------|-9---9-----5-----|---5---7-------7-|
|---7-------7---7-|-------7-3-------|-----5-----------|
|-0-----------0---|-----------------|-----------------|


    E5                        Gadd11/C      Bm7/D
    E E E E E E E E   E E E E E E E E   E E E E E E E E
||------------------|-----------------|------------------||
||o-----------------|---------------0-|-----------------o||
||--------9---------|---9---------5---|-5---------7------||
||------9---9-------|-9---9-----5-----|---5-----7---7----||
||o---7-------7---7-|-------7-3-------|-------5-------5-o||
||--0-----------0---|-----------------|-----0------------||


  E5                        Gadd11/C      Bm7/D
  E E E E E E E E   E E E E E E E E   E E E E E E E E
|-----------------|-----------------|-----------------|
|-----------------|---------------0-|-----------0-----|
|-------9---------|---9---------5---|-5-------7---7---|
|-----9---9-------|-9---9-----5-----|---5---7-------7-|
|---7-------7---7-|-------7-3-------|-----5-----------|
|-0-----------0---|-----------------|-----------------|


   Start + Verse
    Q=135
    E5   D5E5   D5  E5    C         D
                                   2/4
    Gtr II
    Q  E E Q  E E   Q  Q  E E E E   E E Q   8x
||----------------|---------------|---------||
||o---------------|-----------5---|-----7--o||
||--9--9-7-9--9-7-|-9--9------5---|-----7---||
||--9--9-7-9--9-7-|-9--9----5---5-|---7-----||
||o-7--7-5-7--7-5-|-7--7--3-------|-5------o||
||----------------|---------------|---------||


   Chorus
    E5     Eb5      E5     G5      E5     Eb5      Bb5
   4/4
    Q  E E Q  E E   Q  E E Q  Q    Q  E E Q  E E   W
||----------------|--------------|---------------|-------||
||o---------------|--------------|---------------|------o||
||--9--9---8--8---|-9--9---------|-9--9---8--8---|-------||
||--9--9---8--8---|-9--9---5--5--|-9--9---8--8---|-8-----||
||o-7--7---6--6---|-7--7---5--5--|-7--7---6--6---|-8----o||
||-------0------0-|------0-3--3--|------0------0-|-6-----||


   Verse
    E5                C         D
                               2/4
    W          +H     E E E E   E E E E  4x
||-----------|----------------|----------||
||o----------|------------5---|-----7---o||
||--9--------|-(9)--------5---|-----7----||
||--9--------|-(9)------5---5-|---7---7--||
||o-7--------|-(7)----3-------|-5-------o||
||-----------|----------------|----------||


   Chorus
    E5     Eb5      E5     G5      E5     Eb5      Bb5
   4/4
    Q  E E Q  E E   Q  E E Q  Q    Q  E E Q  E E   W
||----------------|--------------|---------------|-------||
||o---------------|--------------|---------------|------o||
||--9--9---8--8---|-9--9---------|-9--9---8--8---|-------||
||--9--9---8--8---|-9--9---5--5--|-9--9---8--8---|-8-----||
||o-7--7---6--6---|-7--7---5--5--|-7--7---6--6---|-8----o||
||-------0------0-|------0-3--3--|------0------0-|-6-----||


 Bridge to Interlude 1
  E5                 D5     E5                 D5
  W          +H      H      W          +H      H
|----------|--------------|----------|--------------|
|----------|--------------|----------|--------------|
|-9--------|-(9)\----7----|-9--------|-(9)\----7----|
|-9--------|-(9)\----7----|-9--------|-(9)\----7----|
|-7--------|-(7)\----5----|-7--------|-(7)\----5----|
|----------|--------------|----------|--------------|


  E5                 D5     E5
  W          +H      H      W          +W
|----------|--------------|----------|--------|
|----------|--------------|----------|--------|
|-9--------|-(9)\----7----|-9--------|-(9)----|
|-9--------|-(9)\----7----|-9--------|-(9)----|
|-7--------|-(7)\----5----|-7--------|-(7)----|
|----------|--------------|----------|--------|


   Interlude 1
    E5   B5     G5      N.C.    E5   B5     G5
                        PM|
    H    H      H    Q  E E 12x H    H      W
||------------|--------------||-----------|------|
||o-----------|-------------o||-----------|------|
||-------4----|--------------||------4----|------|
||--2----4----|-5----5-------||-2----4----|-5----|
||o-2----2----|-5----5------o||-2----2----|-5----|
||--0---------|-3----3--3-2--||-0---------|-3----|


   Verse
    E5   D5E5   D5  E5    C        D
                                  2/4
    Q  E E Q  E E   Q  Q  E E Q    E E Q   5x
||----------------|--------------|---------||
||o---------------|-----------5--|-----7--o||
||--9--9-7-9--9-7-|-9--9------5--|-----7---||
||--9--9-7-9--9-7-|-9--9----5----|---7-----||
||o-7--7-5-7--7-5-|-7--7--3------|-5------o||
||----------------|--------------|---------||


   Chorus
    E5     Eb5      E5     G5      E5     Eb5      Bb5
   4/4
    Q  E E Q  E E   Q  E E Q  Q    Q  E E Q  E E   W
||----------------|--------------|---------------|-------||
||o---------------|--------------|---------------|------o||
||--9--9---8--8---|-9--9---------|-9--9---8--8---|-------||
||--9--9---8--8---|-9--9---5--5--|-9--9---8--8---|-8-----||
||o-7--7---6--6---|-7--7---5--5--|-7--7---6--6---|-8----o||
||-------0------0-|------0-3--3--|------0------0-|-6-----||


 Bridge to Interlude 2
  E5
  W          +W
|----------|--------|
|----------|--------|
|----------|--------|
|-2--------|-(2)----|
|-2--------|-(2)----|
|-0--------|-(0)----|


   Interlude 2
    Q=160
    N.C.
    H     H       H    E  S S  E E         H     H       H    E  S S  E E
||-------------|--------------------||-||-------------|--------------------||
||o------------|-------------------o||-||o------------|-------------------o||
||-------------|--------------------||-||--9----10----|-------9h10p9h10-7--||
||--7----10----|-------9h10p9h10-7--||-||-------------|-12-----------------||
||o------------|-11----------------o||-||o------------|-------------------o||
||-------------|--------------------||-||-------------|--------------------||


    N.C.
    H     H       H    E  S S  E E     H     H
||-------------|--------------------||------------|
||o------------|-------------------o||------------|
||-------------|--------------------||-9----10----|
||--7----10----|-------9h10p9h10-7--||------------|
||o------------|-11----------------o||------------|
||-------------|--------------------||------------|


  N.C.
   H    E  S S  E E   H     H      W
|-------------------|------------|------|
|-------------------|------------|------|
|-------9h10p9h10-7-|-9----10----|------|
|-12----------------|------------|-6----|
|-------------------|------------|------|
|-------------------|------------|------|


    N.C.
    H     H      W         4x     H     H       W     4x
||-------------|-----------||-||-------------|--------||
||o------------|----------o||-||o------------|-------o||
||-------------|-----------||-||-------12----|-10-----||
||--7----10----|-6---------||-||--9----------|--------||
||o------------|----------o||-||o------------|-------o||
||-------------|-----------||-||-------------|--------||


   Verse
    Q=135
    E5                C        D
                              2/4
    W          +H     E E Q    E E Q   4x
||-----------|---------------|---------||
||o----------|------------5--|-----7--o||
||--9--------|-(9)--------5--|-----7---||
||--9--------|-(9)------5----|---7-----||
||o-7--------|-(7)----3------|-5------o||
||-----------|---------------|---------||


   Chorus
    E5     Eb5      E5     G5      E5     Eb5      Bb5
   4/4
    Q  E E Q  E E   Q  E E Q  Q    Q  E E Q  E E   W
||----------------|--------------|---------------|-------||
||o---------------|--------------|---------------|------o||
||--9--9---8--8---|-9--9---------|-9--9---8--8---|-------||
||--9--9---8--8---|-9--9---5--5--|-9--9---8--8---|-8-----||
||o-7--7---6--6---|-7--7---5--5--|-7--7---6--6---|-8----o||
||-------0------0-|------0-3--3--|------0------0-|-6-----||


 Ending
  E5
  W          +W           +W
|----------|------------|--------*|
|----------|------------|--------*|
|----------|------------|--------*|
|-2--------|-(2)--------|-(2)----*|
|-2--------|-(2)--------|-(2)----*|
|-0--------|-(0)--------|-(0)----*|


Duration Legend
---------------
W - whole; H - half; Q - quarter; E - 8th; S - 16th; T - 32nd; X - 64th; a - acciaccatura
+ - note tied to previous; . - note dotted; .. - note double dotted
Uncapitalized letters represent notes that are staccato (1/2 duration)
Irregular groupings are notated above the duration line
Duration letters will always appear directly above the note/fret number it represents the
duration for.  Duration letters with no fret number below them represent rests.  Multi-
bar rests are notated in the form Wxn, where n is the number of bars to rest for.  Low
melody durations appear below the staff

Tablature Legend
----------------
 h   - hammer-on
 p   - pull-off
 b   - bend
 pb  - pre-bend
 r   - bend release (if no number after the r, then release immediately)
 /\  - slide into or out of (from/to "nowhere")
 s   - legato slide
 S   - shift slide
  - natural harmonic
[n]  - artificial harmonic
n(n) - tapped harmonic
 ~   - vibrato
 tr  - trill
 T   - tap
 TP  - trem. picking
 PM  - palm muting
\n/  - tremolo bar dip; n = amount to dip
 \n  - tremolo bar down
 n/  - tremolo bar up
/n\  - tremolo bar inverted dip
 =   - hold bend; also acts as connecting device for hammers/pulls
 <>  - volume swell (louder/softer)
 x   - on rhythm slash represents muted slash
 o   - on rhythm slash represents single note slash

Misc Legend
-----------
 |  - bar
||  - double bar
||o - repeat start
o|| - repeat end
*|  - double bar (ending)
 :  - bar (freetime)
 $  - Segno
 &  - Coda
Tempo markers -  = BPM(8/16=s8/s16), where s8 = swing 8ths, s16 = swing 16ths
            
Submit corrections

comments powered by Disqus
↑ Back to top | Dissection Tabs for Elizabeth Bathori. Lyrics for acoustic guitar and electric guitar. Tablatures and chords are parodies/interpretations of the original songs. You may use it for private study, scholarship, research or language learning purposes only