» » »

Elisabeth Bathori Tabs (ver.1)

Artists:  A B C D E F G H I J K L M N O P Q R S T U V W X Y Z # 

Elisabeth Bathori Tabs (ver.1)

Dissection
Rating:
3/5 (2 votes)

Hard to play? Try these video lessons and learn fast.
                                         DISSECTION-ELISABETH BATHORI(Tormentor Cover)
                         From the Album WHERE DEAD ANGELS LIE
                         Copyright 1996 Nuclear Blast
                             
                         Version 1.0 - January 1998



Visit Malignant Tablature Dominion my homepage: 

Check Out 's Web Page, With More Transcriptions On It:
               

Check Out DEATH WARP, With More Transcriptions On It:




/     slide up
\     slide down
p     pull on
h     hammer on
~     vibrato


Normal Tunning

 play 1 time
|------------------------------------------------------|
|----------------------------------0-------------0-----|
|-------9------------9-----------5---5---------7---7---|
|-----9---9--------9---9-------5-------5-----7-------7-|
|---7-------7----7-------7---3-------------5-----------|
|-0------------0---------------------------------------|


 play 2 times
|------------------------------------------------------|
|----------------------------------0-------------------|
|-------9------------9-----------5---5-----------7-----|
|-----9---9--------9---9-------5-------5-------7---7---|
|---7-------7----7-------7---3---------------5-------5-|
|-0------------0---------------------------0-----------|

 play 1 time
|------------------------------------------------------|
|------------------------------------------------0-----|
|-------9------------9-------------5-----------7---7---|
|-----9---9--------9---9---------5---5-------7-------7-|
|---7-------7----7-------7-----3-------5---5-----------|
|-0------------0-------------0-------------------------|

 play 8 times
|---------------------------------------|
|----------------------------5--------7-|
|-9--9-7--9--9-7--9--9-------5--------7-|
|-9--9\7--9--9\7--9--9-----5--------7---|
|-7--7\5--7--7\5--7--7---3--------5-----|
|---------------------------------------|

 play 2 times
|-------------------------------------------|
|-5-5---4-4---5-5------------5-5---4--4-----|
|-4-4---3-3---4-4------------4-4---3--3---3-|
|-2-2---1-1---2-2----5--5----2-2---1--1---3-|
|--------------------5--5-----------------1-|
|-----0-----0-----0--3--3--0-----0------0---|

 play 4 times
|---------------------------------------|
|----------------------------5--------7-|
|-9--9-7--9--9-7--9--9-------5--------7-|
|-9--9\7--9--9\7--9--9-----5--------7---|
|-7--7\5--7--7\5--7--7---3--------5-----|
|---------------------------------------|


 play 2 times
|-------------------------------------------|
|-5-5---4-4---5-5------------5-5---4--4-----|
|-4-4---3-3---4-4------------4-4---3--3---3-|
|-2-2---1-1---2-2----5--5----2-2---1--1---3-|
|--------------------5--5-----------------1-|
|-----0-----0-----0--3--3--0-----0------0---|

 play 1 time
|-------------------------------------|
|-------------------------------------|
|-9-----9\7--9------9\7--9-----9\7--9-|
|-9-----9\7--9------9\7--9-----9\7--9-|
|-7-----7\5--7------7\5--7-----7\5--7-|
|-------------------------------------|

 play 12 times
|------------------|
|------------------|
|------4-----------|
|--2---4---5-------|
|--2---2---5-------|
|--0-------3---3-2-|

 play 1 time
|------------------|
|------------------|
|------4-----------|
|--2---4---5-------|
|--2---2---5-------|
|--0-------3-------|

 play 5 times
|---------------------------------------|
|----------------------------5--------7-|
|-9--9-7--9--9-7--9--9-------5--------7-|
|-9--9\7--9--9\7--9--9-----5--------7---|
|-7--7\5--7--7\5--7--7---3--------5-----|
|---------------------------------------|

 play 2 times
|-------------------------------------------|
|-5-5---4-4---5-5------------5-5---4--4-----|
|-4-4---3-3---4-4------------4-4---3--3---3-|
|-2-2---1-1---2-2----5--5----2-2---1--1---3-|
|--------------------5--5-----------------1-|
|-----0-----0-----0--3--3--0-----0------0---|
 

|---|
|---|
|---|
|-2-|
|-2-|
|-0-|

 play 2 times
|---------------------------|
|---------------------------|
|---------------------------|
|-7--10--------9h10p9h10p7--|
|--------11-----------------|
|---------------------------|

 play 2 times
|---------------------------|
|---------------------------|
|-9--10--------9h10p9h10p7--|
|--------12-----------------|
|---------------------------|
|---------------------------|

 play 2 times
|---------------------------|
|---------------------------|
|---------------------------|
|-7--10--------9h10p9h10p7--|
|--------11-----------------|
|---------------------------|

 play 1 time
|---------------------------------------------|
|---------------------------------------------|
|-9--10--------9h10p9h10p7------9---10--------|
|--------12------------------------------6----|
|---------------------------------------------|
|---------------------------------------------|

 play 4 times
|-----------|
|-----------|
|-----------|
|-7---10--6-|
|-----------|
|-----------|


 play 4 times
|-----------|
|-----------|
|----12--10-|
|-9---------|
|-----------|
|-----------|

 play 4 times
|---------------------------------------|
|----------------------------5--------7-|
|-9--9-7--9--9-7--9--9-------5--------7-|
|-9--9\7--9--9\7--9--9-----5--------7---|
|-7--7\5--7--7\5--7--7---3--------5-----|
|---------------------------------------|


 play 2 times
|-------------------------------------------|
|-5-5---4-4---5-5------------5-5---4--4-----|
|-4-4---3-3---4-4------------4-4---3--3---3-|
|-2-2---1-1---2-2----5--5----2-2---1--1---3-|
|--------------------5--5-----------------1-|
|-----0-----0-----0--3--3--0-----0------0---|
 
ending
|---|
|---|
|---|
|-2-|
|-2-|
|-0-|


This tab is not permitted or any others off my page to by posted anywhere without
asking me in head of time. For all the time it takes me to do some of these tabs please
            
Hard to play? Try these video lessons and learn fast. | Correct




comments powered by Disqus
↑ Back to top | Tablatures and chords are parodies/interpretations of the original songs. You may use it for private study, scholarship, research or language learning purposes only