>
 >
Black Horizons

Black Horizons Guitar Tabs

Dissection - Black Horizons chords, tabs, tablatures, lyrics

Guitar lessons | Add/correct | Request | Top 50 tabs Artists:  A B C D E F G H I J K L M N O P Q R S T U V W X Y Z 0-9

Black Horizons Guitar Tabs – Dissection

CD, Sheet music, Poster

Do you like Black Horizons? Share with your friends now
Tabs


Ver. 1.0 (02/04/21)

Symbols used in this tablature
        h : Hammer on            p : Pulling off
        g : Grissando            s : Slide
        c,hc,1hc : Bend          tr : Trill

Tuning : normal (6 : E)

*** time - 0:06
Part_A
  Repeat it 4 times.
#||---------------------------------------|--------------------------------------|
#||---------------------------------------|--------------------------------------|
#||o--------------------------------------|--------------------------------------|
#||o--------------------9-9-9-9-----------|--------------------------------------|
#||------------7-7-7-7-----------7-7-7-7--|--11111111-8-8-8-8------1111-8-8-8-8--|
#||---0-0-0-0-----------------------------|--------------------9-9---------------|
 ||   1        2        3        4        |  1        2        3        4        |
 ||                                       |                                      |
 ||                                       |                                      |
#||---------------------------------------|--------------------------------------|
#||---------------------------------------|--------------------------------------|
#||o--------------------------------------|--------------------------------------|
#||o--------------------------------------|--6-6-6-6--6-6-6-6--6-6-6-6--6-6-6-6--|
#||---2-2-2-2--2-2-2-2--2-2-2-2--2-2-2-2--|--4-4-4-4--4-4-4-4--4-4-4-4--4-4-4-4--|
#||---0-0-0-0--0-0-0-0--0-0-0-0--0-0-0-0--|--------------------------------------|
      1        2        3        4           1        2        3        4

 _______________
|1.3.
|--------------------------------------|---------------------------------------||
|--------------------------------------|---------------------------------------||
|--------------------9-9-9-9-----------|-----------1212-----1313-----1212-----o||
|-----------9-9-9-9-----------9-9-9-9--|--10101010-----1010-----1010-----1010-o||
|--7-7-7-7-----------------------------|---------------------------------------||
|--------------------------------------|---------------------------------------||
|  1        2        3        4        |  1        2        3        4         ||
|                                      |                                       ||
|                                      |                                       ||
|--------------------------------------|---------------------------------------||
|--------------------------------------|---------------------------------------||
|--------------------------------------|--------------------------------------o||
|--------------------------------------|--5-5-5-5--5-5-5-5--5-5-5-5--5-5-5-5--o||
|--2-2-2-2--2-2-2-2--2-2-2-2--2-2-2-2--|--3-3-3-3--3-3-3-3--3-3-3-3--3-3-3-3---||
|--0-0-0-0--0-0-0-0--0-0-0-0--0-0-0-0--|---------------------------------------||
   1        2        3        4           1        2        3        4    
 _______________
|2.
|--------------------------------------|---------------------------------------||
|--------------------------------------|---------------------------------------||
|--------------------9-9-9-9-----------|--------------------------------------o||
|-----------9-9-9-9-----------9-9-9-9--|--------------------10--9----7---9----o||
|--7-7-7-7-----------------------------|-----------10101010--------------------||
|--------------------------------------|--8-8-8-8------------------------------||
|  1        2        3        4        |  1        2        3        4         ||
|                                      |                                       ||
|                                      |                                       ||
|--------------------------------------|---------------------------------------||
|--------------------------------------|---------------------------------------||
|--------------------------------------|--------------------------------------o||
|--------------------------------------|--5-5-5-5--5-5-5-5--5-5-5-5--5-5-5-5--o||
|--2-2-2-2--2-2-2-2--2-2-2-2--2-2-2-2--|--3-3-3-3--3-3-3-3--3-3-3-3--3-3-3-3---||
|--0-0-0-0--0-0-0-0--0-0-0-0--0-0-0-0--|---------------------------------------||
   1        2        3        4           1        2        3        4    
 _______________
|4.
|--------------------------------------|--------------------------------------|#
|--------------------------------------|--------------------------------------|#
|--------------------9-9-9-9-----------|--------------------------------------|#
|-----------9-9-9-9-----------9-9-9-9--|--------------------10101010-9-9-9-9--|#
|--7-7-7-7-----------------------------|-----------10101010-------------------|#
|--------------------------------------|--8-8-8-8-----------------------------|#
|  1        2        3        4        |  1        2        3        4        | 
|                                      |                                      | 
|                                      |                                      | 
|--------------------------------------|--------------------------------------|#
|--------------------------------------|--------------------------------------|#
|--------------------------------------|--------------------------------------|#
|--------------------------------------|--5-5-5-5--5-5-5-5--5-5-5-5--5-5-5-5--|#
|--2-2-2-2--2-2-2-2--2-2-2-2--2-2-2-2--|--3-3-3-3--3-3-3-3--3-3-3-3--3-3-3-3--|#
|--0-0-0-0--0-0-0-0--0-0-0-0--0-0-0-0--|--------------------------------------|#
   1        2        3        4           1        2        3        4   (End of Part_A) 


*** time - 0:30
Part_B
#|--------------------------------------|--------------------------------------|
#|--------------------------------------|--------------------------------------|
#|--------------------------------------|------------------------------__3__---|
#|--------------------------------------|-----------------------------|--|--|--|
#|--------------------------------------|-----------------------------3--3--3--|
#|--------------------------------------|-----------------------------1--1--1--|
 |  1        2        3        4        |  1        2        3        4        |
 |                                      |                                      |
 |                                      |                                      |
#|--------------------------------------|--------------------------------------|
#|--------------------------------------|--------------------------------------|
#|---__3__----__3__----__3__----__3__---|---__3__----__3__----__3__----__3__---|
#|--|--|--|--|--|--|--|--|--|--|--|--|--|--|--|--|--|--|--|--|--|--|--|--|--|--|
#|--4--4--4--4--4--4--4--4--4--5--5--4--|--4--4--4--4--4--4--4--4--4--3--3--3--|
#|--2--2--2--2--2--2--2--2--2--3--3--2--|--2--2--2--2--2--2--2--2--2--1--1--1--|
    1        2        3        4           1        2        3        4


|--------------------------------------|--------------------------------------|
|--------------------------------------|--------------------------------------|
|---__3__----__3__----__3__----__3__---|---__3__----__3__----_____3_____------|
|--|--|--|--|--|--|--|--|--|--|--|--|--|--|--|--|--|--|--|--|-----|-----|-----|
|--4--4--4--4--4--4--4--4--4--5--5--4--|--4--4--4--4--4--4--3-----3-----3-----|
|--2--2--2--2--2--2--2--2--2--3--3--2--|--2--2--2--2--2--2--1-----1-----1-----|
   1        2        3        4           1        2        3        4

|--9--9--9--9--9--9--9--9--9--10-10-9--|--9--9--9--9--9--9--9--9--9--8--8--8--|
|--10-10-10-10-10-10-10-10-10-11-11-10-|--10-10-10-10-10-10-10-10-10-9--9--9--|
|--11-11-11-11-11-11-11-11-11-12-12-11-|--11-11-11-11-11-11-11-11-11-10-10-10-|
|--11-11-11-11-11-11-11-11-11-12-12-11-|--11-11-11-11-11-11-11-11-11-10-10-10-|
|--9--9--9--9--9--9--9--9--9--10-10-9--|--9--9--9--9--9--9--9--9--9--8--8--8--|
|--------------------------------------|--------------------------------------|
|  1        2        3        4        |  1        2        3        4        |
|                                      |                                      |
|                                      |                                      |
|--------------------------------------|--------------------------------------|
|--------------------------------------|--------------------------------------|
|---__3__----__3__----__3__----__3__---|---__3__----__3__----__3__----__3__---|
|--|--|--|--|--|--|--|--|--|--|--|--|--|--|--|--|--|--|--|--|--|--|--|--|--|--|
|--4--4--4--4--4--4--4--4--4--5--5--4--|--4--4--4--4--4--4--4--4--4--3--3--3--|
|--2--2--2--2--2--2--2--2--2--3--3--2--|--2--2--2--2--2--2--2--2--2--1--1--1--|
   1        2        3        4           1        2        3        4

|--9--9--9--9--9--9--9--9--9--10-10-9--|--9--9--9--9--9--9--9-----9-----8-----|#
|--10-10-10-10-10-10-10-10-10-11-11-10-|--10-10-10-10-10-10-10----10----9-----|#
|--11-11-11-11-11-11-11-11-11-12-12-11-|--11-11-11-11-11-11-11----11----10----|#
|--11-11-11-11-11-11-11-11-11-12-12-11-|--11-11-11-11-11-11-11----11----10----|#
|--9--9--9--9--9--9--9--9--9--10-10-9--|--9--9--9--9--9--9--9-----9-----8-----|#
|--------------------------------------|--------------------------------------|#
|  1        2        3        4        |  1        2        3        4        | 
|                                      |                                      | 
|                                      |                                      | 
|--------------------------------------|--------------------------------------|#
|--------------------------------------|--------------------------------------|#
|---__3__----__3__----__3__----__3__---|---__3__----__3__----_____3_____------|#
|--|--|--|--|--|--|--|--|--|--|--|--|--|--|--|--|--|--|--|--|-----|-----|-----|#
|--4--4--4--4--4--4--4--4--4--5--5--4--|--4--4--4--4--4--4--3-----3-----3-----|#
|--2--2--2--2--2--2--2--2--2--3--3--2--|--2--2--2--2--2--2--1-----1-----1-----|#
   1        2        3        4           1        2        3        4   (End of Part_B) 


*** time - 0:47
Play Part_A
  Repeat it 4 times.


*** time - 1:11
Part_C
  Repeat it 2 times.
#||------------7---7----------------------|-----------7---7----------------------|
#||------------8---8----------------------|-----------8---8----------------------|
#||o--9--------9---9----6-----------------|--9--------9---9----5-----------------|
#||o--9--------9---9----6-----------------|--9--------9---9----5-----------------|
#||---7--------7---7----4-----------------|--7--------7---7----3-----------------|
#||---------------------------------------|--------------------------------------|
 ||   1        2        3        4        |  1        2        3        4        |
 ||                                       |                                      |
 ||                                       |                                      |
#||---------------------------------------|--------------------------------------|
#||---------------------------------------|--------------------------------------|
#||o--------------------------------------|--------------------------------------|
#||o--9~-------9~-------6-----------------|--9~-------9~-------5-----------------|
#||---7~-------7~-------4-----------------|--7~-------7~-------3-----------------|
#||---------------------------------------|--------------------------------------|
      1        2        3        4           1        2        3        4


|-----------7---7----------------------|-----------7---7-----------------------||#
|-----------8---8----------------------|-----------8---8-------------5~--7~----||#
|--9--------9---9----6--------10-------|--9--------9---9----5---5~------------o||#
|--9--------9---9----6--------10-------|--9--------9---9----5-----------------o||#
|--7--------7---7----4--------8--------|--7--------7---7----3------------------||#
|--------------------------------------|---------------------------------------||#
|  1        2        3        4        |  1        2        3        4         ||
|                                      |                                       ||
|                                      |                                       ||
|--------------------------------------|---------------------------------------||#
|--------------------------------------|---------------------------------------||#
|--------------------------------------|--------------------------------------o||#
|--9~-------9~-------6--------10-------|--tr-------tr-------5-----------------o||#
|--7~-------7~-------4--------8--------|--78-------78-------3------------------||#
|--------------------------------------|---------------------------------------||#
   1        2        3        4           1        2        3        4    (End of Part_C)


*** time - 1:32
Part_D
#||---------------------------------------|--------------------------------------|
#||---------------------------------------|--------------------------------------|
#||o--------------------------------------|--------------------------------------|
#||o--------------------9--9--9-----------|--------------------------------------|
#||------------7--7--7-----------7--7--7--|--11-11-11-8--8--8------11---8--------|
#||---0--0--0-----------------------------|--------------------9-----------------|
 ||   1        2        3        4        |  1        2        3        4        |
 ||                                       |                                      |
 ||                                       |                                      |
#||---------------------------------------|--------------------------------------|
#||---------------------------------------|--------------------------------------|
#||o--------------------------------------|--------------------------------------|
#||o--------------------------------------|--6~-------6~-------6~-------6~-------|
#||---2~-------2~-------2~-------2~-------|--4~-------4~-------4~-------4~-------|
#||---0~-------0~-------0~-------0~-------|--------------------------------------|
      1        2        3        4           1        2        3        4

 _______________
|1.3.
|--------------------------------------|---------------------------------------||
|--------------------------------------|---------------------------------------||
|--------------------9--9--9-----------|-----------12-------13-------12-------o||
|-----------9--9--9-----------9--9--9--|--10-10-10-----10-------10------------o||
|--7--7--7-----------------------------|---------------------------------------||
|--------------------------------------|---------------------------------------||
|  1        2        3        4        |  1        2        3        4         ||
|                                      |                                       ||
|                                      |                                       ||
|--------------------------------------|---------------------------------------||
|--------------------------------------|---------------------------------------||
|--------------------------------------|--------------------------------------o||
|--------------------------------------|--5~-------5~-------5~-------5~-------o||
|--2~-------2~-------2~-------2~-------|--3~-------3~-------3~-------3~--------||
|--0~-------0~-------0~-------0~-------|---------------------------------------||
   1        2        3        4           1        2        3        4    

 _______________
|2.4.
|--------------------------------------|---------------------------------------||#
|--------------------------------------|---------------------------------------||#
|--------------------9--9--9-----------|--------------------------------------o||#
|-----------9--9--9-----------9--9--9--|--------------------------------------o||#
|--7--7--7-----------------------------|---------------------------------------||#
|--------------------------------------|---------------------------------------||#
|  1        2        3        4        |  1        2        3        4         || 
|                                      |                                       || 
|                                      |                                       || 
|--------------------------------------|---------------------------------------||#
|--------------------------------------|---------------------------------------||#
|--------------------------------------|--------------------------------------o||#
|--------------------------------------|--5~-------5~-------5~-------5~-------o||#
|--2~-------2~-------2~-------2~-------|--3~-------3~-------3~-------3~--------||#
|--0~-------0~-------0~-------0~-------|---------------------------------------||#
   1        2        3        4           1        2        3        4    (End of Part_D)


*** time - 1:50
Part_E
  Repeat it 6 times.
#||---------------------------------------|--------------------------------------|
#||---------------------------------------|--------------------------------------|
#||o--------------------------------------|--------------------------------------|
#||o--------------------------------------|--------------------------------------|
#||------------2--2--2--3--3--3-----------|-----------2--2--2-----------6--6--6--|
#||---0--0--0--------------------2--2--2--|--3--3--3-----------3--3--3-----------|
      1        2        3        4           1        2        3        4


|--------------------------------------|
|--------------------------------------|
|--------------------------------------|
|--------------------5-----------------|
|--5--5--5--3-----------------6--------|
|--------------------------------------|
   1        2        3        4         


|--------------|--------------|--------------|---------------||#
|--------------|--------------|--------------|---------------||#
|--------------|--------------|--------------|--------------o||#
|--------------|--------------|--------------|--------------o||#
|------7---8---|------5-7-8---|------7---8---|--5-------3----||#
|--5-----------|--6-----------|--5-----------|---------------||#
   1   2   3      1   2   3      1   2   3   |  1   2   3    ||
                                             |               ||
                                             |               ||
                                             |---------------||#
                                             |---------------||#
                                             |--------------o||#
                                             |--------------o||#
                                             |--8-------7----||#
                                             |---------------||#
                                                1   2   3   (End of Part_E)


*** time - 2:30
Part_F
  Repeat it 8 times.
#||---------------------------------------|--------------------------------------|
#||---------------------------------------|--------------------------------------|
#||o--------------------------------------|--------------------------------------|
#||o--------------------------------------|--5~-------5~-------5~-------5~-------|
#||---2~-------2~-------2~-------2~-------|--3~-------3~-------3~-------3~-------|
#||---0~-------0~-------0~-------0~-------|--------------------------------------|
 ||   1        2        3        4        |  1        2        3        4        |
 ||                                       |                                      |
 ||                                       |                                      |
#||---------------------------------------|--------------------------------------|
#||---------------------------------------|--------------------------------------|
#||o--------------------------------------|-----------2--2--2--------------------|
#||o--------------------2--2--2--5--5--5--|--4--4--4-----------5--5--5--4--4--4--|
#||------------2--2--2--------------------|--------------------------------------|
#||---0--0--0-----------------------------|--------------------------------------|
      1        2        3        4           1        2        3        4

 _______________
|1.5.
|--------------------------------------|---------------------------------------||
|--------------------------------------|---------------------------------------||
|--------------------------------------|--------------------------------------o||
|--------------------------------------|-----------------------------3--------o||
|--2~-------2~-------2~-------2~-------|--3~-------3~-------3------------------||
|--0~-------0~-------0~-------0~-------|--1~-------1~--------------------------||
|  1        2        3        4        |  1        2        3        4         ||
|                                      |                                       ||
|                                      |                                       ||
|--------------------------------------|---------------------------------------||
|--------------------------------------|---------------------------------------||
|--------------------4--4--4-----------|--2------------2----4-----------------o||
|--2--2--2--5--5--5-----------5--5--5--|-----------5-----------------5--------o||
|--------------------------------------|---------------------------------------||
|--------------------------------------|---------------------------------------||
   1        2        3        4           1        2        3        4
 _______________
|2.6.
|--------------------------------------|---------------------------------------||
|--------------------------------------|---------------------------------------||
|--------------------------------------|--------------------------------------o||
|--------------------------------------|--------------------------------------o||
|--2~-------2~-------2~-------2~-------|--5--------2--------3------------------||
|--0~-------0~-------0~-------0~-------|--3--------0--------1------------------||
|  1        2        3        4        |  1        2        3        4         ||
|                                      |                                       ||
|                                      |                                       ||
|--------------------------------------|---------------------------------------||
|--------------------------------------|---------------------------------------||
|--------------------4--4--4-----------|--5--------7--------5-h7-p5--4--------o||
|--2--2--2--5--5--5-----------5--5--5--|--------------------------------------o||
|--------------------------------------|---------------------------------------||
|--------------------------------------|---------------------------------------||
   1        2        3        4           1        2        3        4
 _______________
|3.7.
|--------------------------------------|---------------------------------------||
|--------------------------------------|---------------------------------------||
|--------------------------------------|-----------------------------7--------o||
|--------------------------------------|--7~-------7~-------7-----------------o||
|--2~-------2~-------2~-------2~-------|--5~-------5~--------------------------||
|--0~-------0~-------0~-------0~-------|---------------------------------------||
|  1        2        3        4        |  1        2        3        4         ||
|                                      |                                       ||
|                                      |                                       ||
|--------------------------------------|---------------------------------------||
|--------------------------------------|---------------------------------------||
|--------------------4--4--4-----------|--2------------2----4-----------------o||
|--2--2--2--5--5--5-----------5--5--5--|-----------5-----------------5--------o||
|--------------------------------------|---------------------------------------||
|--------------------------------------|---------------------------------------||
   1        2        3        4           1        2        3        4
 _______________
|4.8.
|--------------------------------------|---------------------------------------||#
|--------------------------------------|---------------------------------------||#
|--------------------------------------|--------------------------------------o||#
|--2~-------2~-------------------------|--------------------------------------o||#
|--0~-------0~-------4~-------4~-------|--5~-------5~-------3~-------3~--------||#
|--------------------2~-------2~-------|--3~-------3~-------1~-------1~--------||#
|  1        2        3        4        |  1        2        3        4         || 
|                                      |                                       || 
|                                      |                                       || 
|--------------------------------------|---------------------------------------||#
|--------------------------------------|---------------------------------------||#
|--5--5--5--2--2--2--4--4--4-----------|--2--2--2-----------------------------o||#
|-----------------------------5--5--5--|-----------4--4--4--5--5--5--3--3--3--o||#
|--------------------------------------|---------------------------------------||#
|--------------------------------------|---------------------------------------||#
   1        2        3        4           1        2        3        4    (End of Part_F)


*** time - 3:04
Play Part_E
  Repeat it 4 times.



*** time - 3:30
Play Part_F
  Repeat it 4 times.


*** time - 4:05
Part_G
#|--------------------------------------|--------------------------------------|
#|--------------------------------------|--------------------------------------|
#|--------------------------------------|------------------------5----4---2h4--|
#|------5----4---2--------5----4---2----|------5----4---4------2---2----2------|
#|----2---2----2---2----2---2----2---2--|----2---2----2---5--3-----------------|
#|--0-----------------0-----------------|--3-----------------------------------|
    1        2        3        4           1        2        3        4


|--------------------------------------|--------------------------------------|#
|--------------------------------------|--------------------------------------|#
|------------------------------------o-//--------------------------------0h2--|#
|-------------------------------------//-o------------------------------------|#
|--------------------------------------|--------------------------------------|#
|--------------------------------------|--------------------------------------|#
|  1        2        3        4        |  1        2        3        4        |
|                                      |                                      |
|                                      |                                      |
|--------------------------------------|--------------------------------------|#
|--------------------------------------|--------------------------------------|#
|--------------------------------------|--------------------------------------|#
|--------------------------------------|--------------------5-5-5----5-5-5----|#
|--2-----------------------------------|--5-----------------3-3-3----3-3-3----|#
|--0-----------------------------------|--3-----------------------------------|#
   1        2        3        4           1        2        3        4   (End of Part_G)


*** time - 4:16
Part_H
  Repeat it 2 times.
#||---------------------------------------|--------------------------------------|
#||---------------------------------------|--------------------------------------|
#||o--------------------------------------|------------------------5----4---2h4--|
#||o------5----4---2--------5----4---2----|------5----4----------2---2----2------|
#||-----2---2----2--------2---2----2------|----2---2------5----3-----------------|
#||---0-----------------0-----------------|--3-----------------------------------|
 ||   1        2        3        4        |  1        2        3        4        |
 ||                                       |                                      |
 ||                                       |                                      |
#||---------------------------------------|--------------------------------------|
#||---------------------------------------|--------------------------------------|
#||o--------------------------------------|--------------------------------------|
#||o--------------------------------------|--------------------5-----------------|
#||---2-----------------2-----------------|--5-----------------3-----------------|
#||---0-----------------0-----------------|--3-----------------------------------|
      1        2        3        4           1        2        3        4


|--------------------------------------|---------------------------------------||#
|--------------------------------------|---------------------------------------||#
|------------------------------------o-//--------------------------------0h2--o||#
|-------------------------------------//-o------------------------------------o||#
|--------------------------------------|---------------------------------------||#
|--------------------------------------|---------------------------------------||#
|  1        2        3        4        |  1        2        3        4         ||
|                                      |                                       ||
|                                      |                                       ||
|--------------------------------------|---------------------------------------||#
|--------------------------------------|---------------------------------------||#
|------------------------------------o-//-------------------------------------o||#
|-------------------------------------//-o------------------------------------o||#
|--------------------------------------|---------------------------------------||#
|--------------------------------------|---------------------------------------||#
   1        2        3        4           1        2        3        4    (End of Part_H)


*** time - 4:39
Part_I-Rythm
  Repeat it 6 times.
#||---------------------------------------|---------------------------------------||#
#||---------------------------------------|---------------------------------------||#
#||o--------------------------------------|--------------------------------------o||#
#||o--------------------------------------|--------------------------------------o||#
#||---7h9------9p7------7h9------9h10-----|--7h9------9p7------10----7------9-----||#
#||-------0-0------0-0------0-0------0-0--|--8---8-8--8---8-8--8---8-8----8-8-----||#
      1        2        3        4           1        2        3        4  (End of Part_I-Rythm)

Part_I-Lead
#|--------------------------------------|--------------------------------------|
#|--------------------------------------|--------------------------------------|
#|--------------------------------------|--------------------------------------|
#|--------------------------------------|--------------------------------------|
#|--7----------------------------7h9----|--7-----------------9hc---9------5----|
#|--------------------------------------|--------------------------------------|
    1        2        3        4           1        2        3        4


|--------------------------------------|--------------------------------------|----|#
|--------------------------------------|--------------------------------------|----|#
|--------------------------------------|--------------------hc-d--------------|----|#
|--------------------------------------|--------------------9^9^9-------------|----|#
|--7----------------------------7h9----|--7-----------------------10-----9----|-7--|#
|--------------------------------------|--------------------------------------|----|#
|  1        2        3        4        |  1        2        3        4        |    |
|                                      |                                      |    |
|                                      |                                      |    |
|--------------------------------------|--------------------------------------|----|#
|--------------------------------------|---------------------c-d---------7----|-8--|#
|--------------------------------------|--------------------7^7^7-4-----------|----|#
|--5----------------------------5h7----|--5-----------------------------------|----|#
|--------------------------------------|--------------------------------------|----|#
|--------------------------------------|--------------------------------------|----|#
   1        2        3        4           1        2        3        4  (End of Part_I-Lead)


*** time - 5:13
Part_J
Repeat it 4 times.
                                           _______________
                                          |1.2.
#||---------------------------------------|---------------------------------------||
#||---------5--------5--------5--------5--|--------5--------5--------5--------5---||
#||o-----4--------4--------4--------4-----|-----4--------4--------4--------4-----o||
#||o--2--------2--------2--------2--------|--------------------------------------o||
#||---------------------------------------|--3--------3--------3--------3---------||
#||---------------------------------------|---------------------------------------||
 ||   1        2        3        4        |  1        2        3        4         ||
 ||                                       |                                       ||
 ||                                       |                                       ||
#||---------------------------------------|---------------------------------------||
#||---------------------------------------|---------------------------------------||
#||o--------------------------------------|--------5--------5--------------------o||
#||o--------------------------------------|-----5--------5-----------------------o||
#||---------------------------------------|--3--------3-----------3--------0------||
#||---------------------------------------|--------------------5-----5--3-----2---||
      1        2        3        4           1        2        3        4

 _______________                          _______________
|3.                                      |4.
|---------------------------------------||---------------------------------------||#
|--------5--------5--------5--------5---||--------5--------5---------------------||#
|-----4--------4--------4--------4-----o||-----4--------4-----------------------o||#
|--------------------------------------o||--------------------------------------o||#
|--3--------3--------3--------3---------||--3--------3--------3--------0---------||#
|---------------------------------------||--------------------5--------2---------||#
|  1        2        3        4         ||  1        2        3        4         || 
|                                       ||                                       || 
|                                       ||                                       || 
|---------------------------------------||---------------------------------------||#
|---------------------------------------||---------------------------------------||#
|--------5--------5--------------------o||--------5--------5--------------------o||#
|-----5--------5-----------------------o||-----5--------5-----------------------o||#
|--3--------3-----------3--------2------||--3--------3--------3--------0---------||#
|--------------------5-----5--3-----2---||--------------------5--------2---------||#
   1        2        3        4             1        2        3        4  (End of Part_J)


*** time - 5:34
Part_K
  Repeat it 4 times.
#||---------------------------------------|--------------------------------------|---|
#||---------------------------------------|-----------------------x3&x4 Only-----|---|
#||o--------------------------------------|-------------------(5~-------4h5h4-2--|-4)|
#||o--------------------------------------|--------------------------------------|---|
#||---2-----------------7--------7--9--10-|--7~-------7~-------3~-------2~----0--|---|
#||---0--0~----0--0~-------0~-------------|--8~-------8~-------5~-------3~-3--2--|---|
      1        2        3        4           1        2        3        4


|--------------------------------------|---------------------------------------||#
|--------------------------------------|---------------------------------------||#
|--------------------------------------|--------------------------------------o||#
|--------------------------------------|--------------------------------------o||#
|--2-----------------7--------7--9--10-|--7~-------7~-------3--------0---------||#
|--0--0~----0--0~-------0~-------------|--8~-------8~-------5--------2---------||#
   1        2        3        4           1        2        3        4   (End of Part_K)


*** time - 6:10
Part_L
  Repeat it 2 times.
#||-------------------|------------------|------------------|-------------------||
#||-------------------|------------------|------------------|-------------------||
#||o------------------|------------------|------------------|------------------o||
#||o--5~--5~--7~--5~--|--4~--4~--5~--4~--|--2~--2~--7~--5~--|--1~--4~--5~--4~--o||
#||---7~--7~--7~--7~--|--5~--5~--5~--5~--|--3~--3~----------|--2~---------------||
#||-------------------|------------------|------------------|-------------------||
      1   2   3   4      1   2   3   4      1   2   3   4      1   2   3   4  (End of Part_L) 


*** time - 6:28
Part_M
  Repeat it 2 times.
#||-------------------|--------------------|------------------|-------------------||
#||-------------------|--------------------|------------------|-------------------||
#||o------------------|--------------------|------------------|------------------o||
#||o--5~--5~--7~--9~--|--4~--4~--7~--5-4-5-|--5~--5~--7~--9~--|--2~--2---4~--4---o||
#||---7~--7~--7~--7~--|--5~--5~------------|--7~--7~--7~--7~--|--3~--3---5~--5----||
#||-------------------|--------------------|------------------|-------------------||
      1   2   3   4      1   2   3   4        1   2   3   4      1   2   3   4  (End of Part_L) 


*** time - 6:45
Part_N
  Repeat it 2 times.
#||-------------------|------------------|------------------|-------------------||#
#||-------------------|------------------|------------------|-------------------||#
#||o------------------|------------------|------------------|------------------o||#
#||o--5~--5~--7~--5~--|--4~--4~--5~--4~--|--2~--2~--7~--5~--|--1~--4~--5~--4~--o||#
#||---7~--7~--7~--7~--|--5~--5~--5~--5~--|--3~--3~----------|--2~---------------||#
#||-------------------|------------------|------------------|-------------------||#
      1   2   3   4      1   2   3   4      1   2   3   4   |  1   2   3   4    ||
                                                            |                   ||
                                                            |-------------------||#
                                                            |--x2 Only----------||#
                                                            |------2~--4~--2~--o||#
                                                            |--1~--4~--5~--4~--o||#
                                                            |--2~---------------||#
                                                            |-------------------||#
                                                               1   2   3   4  (End of Part_N)

*** time - 7:03
Play Part_E
  Repeat it 4 times.


*** time - 7:29
Play Part_F
  Repeat it 8 times.


*** time - 8:03
Part_O
#|----------------|----------------|----------------|#
#|----------------|----------------|----------------|#
#|----------------|-----2----------|----------------|#
#|--------2--5----|--4-----5--4----|--2-------------|#
#|-----2----------|----------------|----------------|#
#|--0-------------|----------------|----------------|#
 |  1  2  3  4    |  1  2  3  4    |  1  2  3  4    |
 |                |                |                |
 |                |                |                |
#|----------------|----------------|----------------|#
#|----------------|----------------|----------------|#
#|----------------|-----2----------|--4-------------|#
#|--------2--5----|--4-----5--4----|----------------|#
#|-----2----------|----------------|----------------|#
#|--0-------------|----------------|----------------|#
    1  2  3  4       1  2  3  4       1  2  3  4    (End of Part_O)


=== END OF TAB ===





Comments


Popular Dissection tabs & chords
Black Dragon Bass Tabs
Night's Blood Bass Tabs
Elisabath Bathori Tabs
Elizabeth Bathory Live Tabs
Frozen Tabs
Maha Kali (Intro) Tabs
No Dreams Breed In Breathless Sleep Tabs
Retribution Tabs
The Somberlain Tabs
Where Dead Angels Lie 1 Tabs


Song lyrics



↑ Back to top | Tablatures and chords are parodies/interpretations of the original songs. You may use it for private study, scholarship, research or language learning purposes only
© 2014 AZChords.com Contact us | Privacy policy | DMCA | Add/correct tabs | Request tabs | Top 50 tabs