» » »

Domestic Prison Tabs (ver.1)

Artists:  A B C D E F G H I J K L M N O P Q R S T U V W X Y Z # 

Domestic Prison Tabs (ver.1)

Disrupt
Rating:
0/5 (0 votes)

Hard to play? Try these video lessons and learn fast.
                
Tuning:  D

INTRO
e|-------------------------------------------------------------|
B|-------------------------------------------------------------|
G|--------------------------------------------3-4-3-4-3--------|
D|-------------------------------------------------------------|
A|-8-8-8-8-8-8-7-7-7-7-8-7-5-5-5-5-5-5-5-----------------------|
E|-6-6-6-6-6-6-5-5-5-5-6-5-3-3-3-3-3-3-3-----------------------|

VERSE
e|--------------------------------------------------------------|
B|--------------------------------------------------------------|
G|--------------------------------------------------------------|
D|--------------------------------------------------------------|
A|--8-7-8-5-5-5-11-11-11-10-10-10-------------------------------|
E|--6-5-6-3-3-3-9--9--9--8--8--8--------------------------------|

CHORUS
e|--------------------------------------------------------|
B|--------------------------------------------------------|
G|--------------------------------------------------------|
D|--------------------------------------------------------|
A|-5-5-5-5-5-4-5-5-5-4-6-5-5-4-4-4-4-4-4-8-8-8-8-8-8------|
E|-3-3-3-3-3-2-3-3-3-2-4-3-3-2-2-2-2-2-2-6-6-6-6-6-6------|

BRIDGE
e|-------------------------------------------------------------------|
B|-------------------------------------------------------------------|
G|-------------------------------------------------------------------|
D|-----------------3-4-3-4-3-----------------5-6-5-6-5---------------|
A|-8-8-7-7-7-5--------------8-8-5-5-5-7------------------------------|
E|-6-6-5-5-5-3--------------6-6-3-3-3-5------------------------------|
            
Hard to play? Try these video lessons and learn fast. | Correct




comments powered by Disqus
↑ Back to top | Tablatures and chords are parodies/interpretations of the original songs. You may use it for private study, scholarship, research or language learning purposes only