» » »

Dispatch, Ride A Tear Bass tabs (ver.1)

Artists:  A B C D E F G H I J K L M N O P Q R S T U V W X Y Z # 

Ride A Tear Bass tabs (ver.1)

Dispatch Tabs
 Rating:
4/5 (4 votes)
Ride A Tear lessons Tabs too difficult? Try these video lessons and learn fast
1
                This is an amazing song, Dispatch's version, that is. I saw the tab for it and thought
would want the real one and when Chetro does the other bass part you hear with it..
and if you have any questions or requests please email!


This is the main part for the whole song, and you can throw in a few twists at the end 
you like:
-------------------------------|
-----------2-2-----2-4-----2-4-|
-0-0---0-4-----4-4-------4-----|
-------------------------------|

I like to add a little bit to the end occasionally like:
--------------------------------------|
-----------2-2-----2-4--4-4-4-4-2-----|
-0-0---0-4-----4-4----------------4-2-|
--------------------------------------|

And the other part you hear Chetro play from time to time, like when Pete sols's is:
-----------------------------------------------|
---4h6/7-----9h10p9----------------------------|
---------7-----------12-11--12---------------9-|
-------------------------------12-14---9-12----|

There you have it! Thanks goes out to my girlfriend, Rachel, you sang the notes Chad
so I could figure them out! Please rate!
            
Submit corrections

comments powered by Disqus
↑ Back to top | Dispatch Bass for Ride A Tear. Lyrics for acoustic guitar and electric guitar. 1 Tablatures and chords are parodies/interpretations of the original songs. You may use it for private study, scholarship, research or language learning purposes only