» » »

Dispatch, Mission Bass tabs (ver.1)

Artists:  A B C D E F G H I J K L M N O P Q R S T U V W X Y Z # 

Mission Bass tabs (ver.1)

Dispatch Tabs
 Rating:
4/5 (4 votes)
Mission lessons Tabs too difficult? Try these video lessons and learn fast
                dispatch
mission
off "bang bang"

E, a, d, g

intro- rest

verse a
4--4--4-----66--4--4--4----4-4-6----------------------------------|
---------------------------------4--4--4----x66--4--4--4----4-4-6-|

verse b
----------------------1----1h3p1----------------------------------|
--------------------3----3----------------------------------------|
4--4--4----x66--4-6-----------------------------------------------|
---------------------------------4--4--4-----66--4--4--4----4-4-6-|

----------------------1h3--1--------------------------------------|
--------------------3--------3-1----------------------------------|
4--4--4----x66--4-6-----------------------------------------------|
---------------------------------4--4--4----x66--4--4--4----2---2-|

verse c
----------------------/3---1--------------------------------------|
---------------------3-------3-1----------------------------------|
4--4--4----x66--4-6----------------------------------2-3----------|
---------------------------------4--4--4-----66--4-6--------6-4-6-|

4--4--4----x66--4--4--4----4-4-6----------------------------------|
---------------------------------4--4--4-----66--4-----4--4-4-4-4-|

chorus
-----------------------------|
-----------------------------|
----------------9---8--6-8-9-|  4 times
6-6-6-6-6-6-6-6--------------|

bridge
--------------------------------------------6---------------------
--------------------------8-----4h6p4--4--4-----------------------
--------6-----6h8p6--6--6-------------------------------------6---
4--4--4-------------------------------------------4h6p4--4--4-----

--------------------|
--------------------|
--------------------|
---4~---------------|

verse d
4--4--4----x66--4--4--4----4-4-6----------------------------------|
---------------------------------4--4--4----x66--4--6--8----9-8-6-|

4--4--4-----66--4--4--4----4-4-6----------------------------------|
---------------------------------4--4--4----x66--4--4--4~---------|

----------------------1-------------------------------------------|
--------------------3-----3-1-------------------------------------|
4--4--4----x66--4-6------------4----------------------------------|
---------------------------------4--4--4----x66--4--4--4----2---2-|

verse e
4--4--4----x66--4--4--4----4-4-6----------------------------------|
---------------------------------4--4--4--4-6-6--4--6--8----9-8-6-|

4--4--4----x66--4-----4----4-4-6----------------------------------|
---------------------------------4--4--4----x66---4-4-4-4-4-4-4-4-|

chorus 4 times (on third bar, stop on the first 9)

bridge

interlude
.---.---.---.-.-.---.---.---.-.-.---.---.---.-.-.---.---.---.-.-
2---2---2---2-4-6---6---6---6-9-4---4---4---4-2-6---6---6---6-9-

.---.---.---.-.-.---.---.---.-.-.---.---.---.-.-----------------|
2---2---2---2-4-6---6---6---6-9-4---4---4---4-0-2~--------------|

chorus lead-in
--------------------------------|
--------------------------------|
--------------------------------|
-----------4p2-4p2-4p2-0h22h4-4-|

chorus 4 times (on third bar, stop after the 6's)

bridge (with the last seven notes repeated twice)

verse f
--------------------6-3-6-3-6-3----------------------------------|
4--4--4----x66--4-6----------------------------------------------|
--------------------------------4--4--4----x66--4--6--8----9-8-6-|

----------------------1------------------------------------------|
--------------------3-----3-1------------------------------------|
4--4--4----x66--4-6-----------4----------------------------------|
--------------------------------4--4--4----x66---4-4-4-4-4-4-4-4-|

last chorus			(twice)
----------------------------------------------------------|
---------------------------------------------.------------|
----------------9---8--6-8-9-----------------9------------|
6-6-6-6-6-6-6-6--------------6-6-6-6-6-6-6-6--------------|

um, fun song. i included every bass note i thought i heard, thats why
its so long. some of the notes may be off, but if you play it you'll 
see that its close.                              
x = ghost note
h = hammer
p = pull
/ = slide up
~ = hold note for a while
. above note = stacatto (really short note)  
            
Submit corrections

comments powered by Disqus
↑ Back to top | Dispatch Bass for Mission. Lyrics for acoustic guitar and electric guitar. Tablatures and chords are parodies/interpretations of the original songs. You may use it for private study, scholarship, research or language learning purposes only