>
 >
Fats

Fats Guitar Tabs

Dispatch - Fats chords, tabs, tablatures, lyrics

Guitar lessons | Add/correct | Request | Top 50 tabs Artists:  A B C D E F G H I J K L M N O P Q R S T U V W X Y Z 0-9

Fats Guitar Tabs – Dispatch

CD, Sheet music, Poster

Do you like Fats? Share with your friends now
Tabs
*_* - played on bass

 D#m
-6-6-6-6-6-6-6-6-6-6-6-6-6-6-6-6--6-6-6-------6-6-6-6--6--|
-7-7-7-6-7-7-6-7-7-7-7-7-7-6-6-6--7-7-7--6-6--7-7-7-7--7--|
-8-8-8-6-8-8-6-8-8-8-8-8-8-6-6-6--8-8-8--6-6--8-8-8-8--8--|	x1
-8-8-8---8-8---8-8-8-8-8-8--------8-8-8--6-6--8-8-8-8--8--|
-6-6-6---6-6---6-6-6-6-6-6--------6-6-6-------6-6-6-6--6--|
----------------------------------------------------------|

-4-4-4-4-4-4-4-4-6-6-6-6-6-6-6-6--|
-6-6-6-6-6-6-6-6-7-7-7-7-7-7-7-7--|
-6-6-6-6-6-6-6-6-8-8-8-8-8-8-8-8--|	x1
-6-6-6-6-6-6-6-6-8-8-8-8-8-8-8-8--|
-4-4-4-4-4-4-4-4-6-6-6-6-6-6-6-6--|
----------------------------------|

 F#    C#    D#m   C#
-2--2--4--4--6--6--4--4--|
-2--2--6--6--7--7--6--6--|
-3--3--6--6--8--8--6--6--|	x4
-4--4--6--6--8--8--6--6--|
-4--4--4--4--6--6--4--4--|
-2--2--------------------|

-------------------------------|
-------------------------------|
-------------------------------|	x1
-------------------------------|
-8-8-9-8-8-9-8-9-11-9-8-6-4-3--|
-6-6-7-6-6-7-6-7-9--7-6-4-2-1--|

 D#m
-6-6-6-6-9-6--6-6-6-6--6-6-9-9-9--6-6--6-6--6--6-6-6--|
-7-7-7-7-7-7--7-7-6-7--7-7-7-7-7--7-7--7-7--7--7-7-7--|
-8-8-8-8-6-8--8-8-6-8--8-8-6-6-6--8-8--8-8--8--8-8-8--|	x1
-8-8-8-8-8-8--8-8---8--8-8-8-8-8--8-8--8-8--8--8-8-8--|
-6-6-6-6-6-6--6-6---6--6-6-6-6-6--6-6--6-6--6--6-6-6--|
------------------------------------------------------|

-4-4-4-4-4-4-4-4-6-6-6-6-6-6-6-6--|
-6-6-6-6-6-6-6-6-7-7-7-7-7-7-7-7--|
-6-6-6-6-6-6-6-6-8-8-8-8-8-8-8-8--|	x1
-6-6-6-6-6-6-6-6-8-8-8-8-8-8-8-8--|
-4-4-4-4-4-4-4-4-6-6-6-6-6-6-6-6--|
----------------------------------|

 F#    F# C#m   C#    C#
-2--2--2--4--x--4--x--4--|
-2--2--2--6--x--6--x--6--|
-3--3--3--6--x--6--x--6--|	x1
-4--4--4--6--x--6--x--6--|
-4--4--4--4-----4-----4--|
-2--2--2-----------------|

 F#    C#    D#m   C#
-2--2--4--4--6--6--4--4--|
-2--2--6--6--7--7--6--6--|
-3--3--6--6--8--8--6--6--|	x3
-4--4--6--6--8--8--6--6--|
-4--4--4--4--6--6--4--4--|
-2--2--------------------|

-------------------------------|
-------------------------------|
-------------------------------|	x1
-------------------------------|
-8-8-9-8-8-9-8-9-11-9-8-6-4-3--|
-6-6-7-6-6-7-6-7-9--7-6-4-2-1--|

 D#m		    C#
-6--6--6-6-6-6-6-6--4-4-4-4-4-4-4-4-4-4-4-4--|
-7--7--7-7-7-7-7-7--6-6-6-6-6-6-6-6-6-6-6-6--|
-8--8--8-8-8-8-8-8--6-6-6-6-6-6-6-6-6-6-6-6--|	x1
-8--8--8-8-8-8-8-8--6-6-6-6-6-6-6-6-6-6-6-6--|
-6--6--6-6-6-6-6-6--4-4-4-4-4-4-4-4-4-4-4-4--|
---------------------------------------------|

 D#m	            C#
-6--6--6------------4-4-4-4-4-4-4-4-4-4-4-4--|
-7--7--7------------6-6-6-6-6-6-6-6-6-6-6-6--|
-8--8--8------------6-6-6-6-6-6-6-6-6-6-6-6--|	x1
-8--8--8------------6-6-6-6-6-6-6-6-6-6-6-6--|
-6--6--6------------4-4-4-4-4-4-4-4-4-4-4-4--|
---------------------------------------------|

 D#m		    C#
-6--6--6------------4--4-4--4--4-4--4-4-4--|
-7--7--7------------6--6-6--6--6-6--6-6-6--|
-8--8--8------------6--6-6--6--6-6--6-6-6--|	x1
-8--8--8------------6--6-6--6--6-6--6-6-6--|
-6--6--6------------4--4-4--4--4-4--4-4-4--|
-------------------------------------------|

 D#m		    C#
-6------------------4-4-4-4-4-4-4-4-4-4-4-4--|
-7------------------6-6-6-6-6-6-6-6-6-6-6-6--|
-8------------------6-6-6-6-6-6-6-6-6-6-6-6--|	x1
-8------------------6-6-6-6-6-6-6-6-6-6-6-6--|
-6------------------4-4-4-4-4-4-4-4-4-4-4-4--|
---------------------------------------------|

 B	F#	C#	D#m	B	F	C#	C#
-2------2-------4-------6-6-6---2-------2-------4-------4--|
-4------2-------6-------7-7-7---4-------2-------6-------6--|
-4------3-------6-------8-8-8---4-------3-------6-------6--|	x1
-4------4-------6-------8-8-8---4-------4-------6-------6--|
-2------4-------4-------6-8-6---2-------4-------4-------4--|
--------2-------------------------------2------------------|

 B	F#	C#	D#m	B	F	C#	C#	C#	C#	C#	C#	C#
-2------2-------4-------6-6-6---2-------2-------4-------4-------4-------4-------4-------4-------4--|
-4------2-------6-------7-7-7---4-------2-------6-------6-------6-------6-------6-------6-------6--|
-4------3-------6-------8-8-8---4-------3-------6-------6-------6-------6-------6-------6-------6--|	x1
-4------4-------6-------8-8-8---4-------4-------6-------6-------6-------6-------6-------6-------6--|
-2------4-------4-------6-8-6---2-------4-------4-------4-------4-------4-------4-------4-------4--|
--------2-------------------------------2----------------------------------------------------------|

 D#m
-6-6-6-6-6-6-6-6-6-6-6-6-6-6-6-6-6-6-6--6-7-8--9--10-11-12-13--|
-7-7-7-7-6-6-6-7-7-7-7-7-7-7-7-7-7-7-7--7-8-9--10-11-12-13-14--|
-8-8-8-8-6-6-6-8-8-8-8-8-8-8-8-8-8-8-8--8-9-10-11-12-13-14-15--|
-8-8-8-8-------8-8-8-8-8-8-8-8-8-8-8-8--8-9-10-11-12-13-14-15--|
-6-6-6-6-------6-6-6-6-6-6-6-6-6-6-6-6--6-7-8--9--10-11-12-13--|
---------------------------------------------------------------|

 F#    C#    D#m   C#
-2--2--4--4--6--6--4--4--|
-2--2--6--6--7--7--6--6--|
-3--3--6--6--8--8--6--6--|	x4
-4--4--6--6--8--8--6--6--|
-4--4--4--4--6--6--4--4--|
-2--2--------------------|

----------------------------------------------------------------------------------------------------------------|
----------------------------------------------------------------------------------------------------------------|
----------------------------------------------------------------------------------------------------------------|x1
----------------------------------------------------------------------------------------------------------------|
----2-4--4-6--4-6-4-2------2-4--4-6-s18s-4-6-4-2------2-4-s18s-4-6--4-6-4-2-----s10s-2-4--4-6-s18s-4-6-4-2------|
-2--------------------4-2------------------------4-2------------------------4-2----------------------------4-2--|


 D#m
-6-6-6-6-6-6-6-6-6-6-6-6-6-6-6-6--6-6-6-------6-6-6-6--6--|
-7-7-7-6-7-7-6-7-7-7-7-7-7-6-6-6--7-7-7--6-6--7-7-7-7--7--|
-8-8-8-6-8-8-6-8-8-8-8-8-8-6-6-6--8-8-8--6-6--8-8-8-8--8--|x1
-8-8-8---8-8---8-8-8-8-8-8--------8-8-8--6-6--8-8-8-8--8--|
-6-6-6---6-6---6-6-6-6-6-6--------6-6-6-------6-6-6-6--6--|
----------------------------------------------------------|

 C#		 D#m
-4-4-4-4-4-4-4-4-6-6-6-6-6-6-6-6--|
-6-6-6-6-6-6-6-6-7-7-7-7-7-7-7-7--|
-6-6-6-6-6-6-6-6-8-8-8-8-8-8-8-8--|	x1
-6-6-6-6-6-6-6-6-8-8-8-8-8-8-8-8--|
-4-4-4-4-4-4-4-4-6-6-6-6-6-6-6-6--|
----------------------------------|

 F#    C#    D#m   C#
-2--2--4--4--6--6--4--4--|
-2--2--6--6--7--7--6--6--|
-3--3--6--6--8--8--6--6--|	x3
-4--4--6--6--8--8--6--6--|
-4--4--4--4--6--6--4--4--|
-2--2--------------------|

 F#    C#    D#m
-2--2--4--4--6--6--6--6--|
-2--2--6--6--7--7--7--7--|
-3--3--6--6--8--8--8--8--|	x4
-4--4--6--6--8--8--8--8--|
-4--4--4--4--6--6--6--6--|
-2--2--------------------|

-----------------------------------|
-----------------------------------|
-----------------------------------|	x1
------------------------------*1*--|
-8-8-9-8-8-9-8-9-11-9-8-6-4-3------|
-6-6-7-6-6-7-6-7-9--7-6-4-2-1------|





Comments


Popular Dispatch tabs & chords
Time Served Bass Tabs
Bang Bang (Intro Ver 2) Tabs
Cover This Tabs
Gone Tabs
I Dont Wanna Fight Tabs
Ride A Tear Tabs
Steeples 2 Tabs
Time Served 6 Tabs
Whirlwind 1 Tabs
Hey Hey Ukulele


Song lyrics



↑ Back to top | Tablatures and chords are parodies/interpretations of the original songs. You may use it for private study, scholarship, research or language learning purposes only
© 2014 AZChords.com Contact us | Privacy policy | DMCA | Add/correct tabs | Request tabs | Top 50 tabs