>
 >
Drive

Drive Guitar Tabs

Dispatch - Drive chords, tabs, tablatures, lyrics

Guitar lessons | Add/correct | Request | Top 50 tabs Artists:  A B C D E F G H I J K L M N O P Q R S T U V W X Y Z 0-9

Drive Guitar Tabs – Dispatch

CD, Sheet music, Poster

Do you like Drive? Share with your friends now
Tabs
Dispatch/One Fell Swoop
Bang Bang

* - Tremelo pick note many times

I am sure this is correct

     Em		     Em     A
-----0-0-------------0-0----0-0--|
-----0-0-------------0-0----2-2--|
-0---0-0--0-0-0--0---0-0----2-2--|	x6
-0h2-2-2--0-0-0--0h2-2-2----2-2--|
-0h2-2-2--2-0-0--0h2-2-2----0-0--|
-0---0-0--3-2-0--0---0-0---------|

 Em	G	A
-0------3-------0------------------|
-0------3-------2-0-2-2-0-2-2-2-2--|
-0------0-------2-0-2-2-0-2-2-2-2--|	x2
-2------0-------2-0-2-2-0-2-2-2-2--|
-2------2-------0------------------|
-0------3--------------------------|

(LEAD I CHORDS)
     Em		     Em     A
-----0-0-------------0-0----0-0--|
-----0-0-------------0-0----2-2--|
-0---0-0--0-0-0--0---0-0----2-2--|	x2
-0h2-2-2--0-0-0--0h2-2-2----2-2--|
-0h2-2-2--2-0-0--0h2-2-2----0-0--|
-0---0-0--3-2-0--0---0-0---------|

LEAD I:
------------------7----------------------------7--|
-7h8-7--------7h8-7---7h8-7--------7h8-7---7h8-7--|
-7---7--------7---7---7---7--------7---7---7---7--|
--------------------------------------------------|
--------------------------------------------------|
-------3-2-0----------------3-2-0-----------------|

     Em		     Em     A
-----0-0-------------0-0----0-0--|
-----0-0-------------0-0----2-2--|
-0---0-0--0-0-0--0---0-0----2-2--|	x4
-0h2-2-2--0-0-0--0h2-2-2----2-2--|
-0h2-2-2--2-0-0--0h2-2-2----0-0--|
-0---0-0--3-2-0--0---0-0---------|

 Em	G	A
-0------3-------0------------------|
-0------3-------2-0-2-2-0-2-2-2-2--|
-0------0-------2-0-2-2-0-2-2-2-2--|	x2
-2------0-------2-0-2-2-0-2-2-2-2--|
-2------2-------0------------------|
-0------3--------------------------|

**PERCUSSION**

 G9	G9
-10-----10--|
-10-----10--|
-10-----10--|	x1
-9------9---|
-10-----10--|
------------|

(LEAD II CHORDS PART A)
 		Em	G	Dadd9
-10-----10------0-------3-------0-------|
-10-----10------0-------3-------0-------|
-10-----10------0-------0-------7-------|
-9------9-------2-------0-------7-------|
-10-----10------2-------2-------5-------|
----------------0-------3-------0-------|

E5	E5	G	Dadd9	E5

0-------0-------0-------0-------0--|
0-------0-------0-------0-------0--|
9-------9-------11------7-------9--|
9-------9-------11------7-------9--|
7-------7-------9-------5-------7--|
0--7-9--0-------x-------0-------0--|

(LEAD II CHORDS PART B)
      D	E5    D	E5    D	E5	E5
--------0-------0-------0-------0--|
--------0-------0-------0-------0--|
------7s9-----7s9-----7s9-------9--|	x1
------7s9-----7s9-----7s9-------9--|
-7-5--5s7-7-5-5s7-7-5-5s7-------7--|
--------0-------0-------0-------0--|

LEAD II:
--------------------------------------------------------------------|
-10-10-10-10-10-8----8--------7-7-7--10-10-10-10-8----8--------7-7--|
-------------------9---9--7---7-9-7-----------------9---9--7---7-9--|
--------------------------7h9------------------------------7h9------|
--------------------------------------------------------------------|
--------------------------------------------------------------------|

-------------------------------------------------------|
-10-10-10-10-10-8----8--------7-7-7--10-10-10-10-10-10-|
-------------------9---9--7---7-9-7--------------------|
--------------------------7h9--------------------------|
-------------------------------------------------------|
-------------------------------------------------------|

----------------------9-7--15*--|
-8--------8--------7--9-7--15*--|
----9-9-9---9--7---7------------|
---------------7h9--------------|
--------------------------------|
--------------------------------|

C9	D9	Em	G	A
-3------5-------0-------3-------0-----------------|
-3------5-------0-------3-------2-0-2-2-0-2-2-2-2-|
-3------5-------0-------0-------2-0-2-2-0-2-2-2-2-|
-2------4-------2-------0-------2-0-2-2-0-2-2-2-2-|
-3------5-------2-------2-------0-----------------|
----------------0-------3-------------------------|

 Em	    G	    A
-0-------3-------0------------------|
-0-------3-------2-0-2-2-0-2-2-2-2--|
-0-------0-------2-0-2-2-0-2-2-2-2--|
-2-------0-------2-0-2-2-0-2-2-2-2--|
-2-------2-------0------------------|
-0-------3--------------------------|





Comments


Popular Dispatch tabs & chords
Ride A Tear 2 Bass Tabs
Flying Horses Chords
Steeples Chords
Bats In The Belfry Tabs
Blue Yellow Tabs
Bridges 1 Tabs
Even 1 Tabs
General (Intro Ver 3) Tabs
Open Up Tabs
Remake Me Tabs


Song lyrics



↑ Back to top | Tablatures and chords are parodies/interpretations of the original songs. You may use it for private study, scholarship, research or language learning purposes only
© 2014 AZChords.com Contact us | Privacy policy | DMCA | Add/correct tabs | Request tabs | Top 50 tabs