» » »

Distant One Unreleased Tabs (ver.1)

Artists:  A B C D E F G H I J K L M N O P Q R S T U V W X Y Z # 

Distant One Unreleased Tabs (ver.1)

Dispatch
Rating:
5/5 (2 votes)

Hard to play? Try these video lessons and learn fast.
                Dispatch/One Fell Swoop
Unreleased Live
Distant One

 C	D
-3------5--|
-5------7--|
-5------7--|	x7
-5------7--|
-3------5--|
-----------|

 C	D     D C	C
-3------5-----5-3-------3--|
-5------7-----7-5-------5--|
-5------7-----7-5-------5--|	x1
-5------7-----7-5-------5--|
-3------5-----5-3-------3--|
---------------------------|

 G	C	G	C	G	C	C9	C
-3------0-------3-------0-------3-------0-------3-------0--|
-3------1-------3-------1-------3-------1-------3-------1--|
-0------0-------0-------0-------0-------0-------3-------0--|	x1
-0------2-------0-------2-------0-------2-------2-------2--|
-2------3-------2-------3-------2-------3-------3-------3--|
-3--------------3---------------3--------------------------|

 C	D
-3------5--|
-5------7--|
-5------7--|	x7
-5------7--|
-3------5--|
-----------|

 C	D     D C	C
-3------5-----5-3-------3--|
-5------7-----7-5-------5--|
-5------7-----7-5-------5--|	x1
-5------7-----7-5-------5--|
-3------5-----5-3-------3--|
---------------------------|

 G	C	G	C	G	C	C9	C
-3------0-------3-------0-------3-------0-------3-------0--|
-3------1-------3-------1-------3-------1-------3-------1--|
-0------0-------0-------0-------0-------0-------3-------0--|	x1
-0------2-------0-------2-------0-------2-------2-------2--|
-2------3-------2-------3-------2-------3-------3-------3--|
-3--------------3---------------3--------------------------|

 C	D
-3------5--|
-5------7--|
-5------7--|	x7
-5------7--|
-3------5--|
-----------|

**IMPROV JAM**

 C	D
-3------5--|
-5------7--|
-5------7--|	x8
-5------7--|
-3------5--|
-----------|

 C	D     D C	C
-3------5-----5-3-------3--|
-5------7-----7-5-------5--|
-5------7-----7-5-------5--|	x1
-5------7-----7-5-------5--|
-3------5-----5-3-------3--|
---------------------------|

 G	C	G	C	G	C
-3------0-------3-------0-------3-------0--|
-3------1-------3-------1-------3-------1--|
-0------0-------0-------0-------0-------0--|	x2
-0------2-------0-------2-------0-------2--|
-2------3-------2-------3-------2-------3--|
-3--------------3---------------3----------|

 G	C	G	C
-3------0-------3-------0--|
-3------1-------3-------1--|
-0------0-------0-------0--|	x1
-0------2-------0-------2--|
-2------3-------2-------3--|
-3--------------3----------|

 C9	C
-3------0--|
-3------1--|
-3------0--|	x3
-2------2--|
-3------3--|
-----------|

 C9	C	G
-3------0-------3--|
-3------1-------3--|
-3------0-------4--|	x1
-2------2-------5--|
-3------3-------5--|
----------------3--|
            
Hard to play? Try these video lessons and learn fast. | Correct




comments powered by Disqus
↑ Back to top | Tablatures and chords are parodies/interpretations of the original songs. You may use it for private study, scholarship, research or language learning purposes only