>
 >
Dem Shoes

Dem Shoes Guitar Tabs

Dispatch - Dem Shoes chords, tabs, tablatures, lyrics

Guitar lessons | Add/correct | Request | Top 50 tabs Artists:  A B C D E F G H I J K L M N O P Q R S T U V W X Y Z 0-9

Dem Shoes Guitar Tabs – Dispatch

CD, Sheet music, Poster

Do you like Dem Shoes? Share with your friends now
Tabs
Dispatch/One Fell Swoop
Four-Day Trials (Remastered)

 Am	Am			Am	Am
-5------5-----------------------5-------5-5--|
-5------5-----------------------5-------5-5--|
-5------5-----------------------5-------5-5--|	x1
-7------7-----------------------7-------7-7--|
-7------7-----------------------7-------7-7--|
-5------5-----------------------5-------5-5--|

 Am	Am	Am	Am
-5------5-------5-------5--|
-5------5-------5-------5--|
-5------5-------5-------5--|	x1
-7------7-------7-------7--|
-7------7-------7-------7--|
-5------5-------5-------5--|

 Am    	C   Am  G   G#	Am	Am
-5------8---5---3---4---5-------5--|
-5------8---5---3---4---5-------5--|
-5------9---5---4---5---5-------5--|	x1
-7------10--7---5---6---7-------7--|
-7------10--7---5---6---7-------7--|
-5------8---5---3---4---5-------5--|

 Am	Am	Am	Am
-5------5-------5-------5--|
-5------5-------5-------5--|
-5------5-------5-------5--|	x2
-7------7-------7-------7--|
-7------7-------7-------7--|
-5------5-------5-------5--|

 Am   	Am  C   Am      Am
-5------5---8---5-------5--|
-5------5---8---5-------5--|
-5------5---9---5-------5--|	x1
-7------7---10--7-------7--|
-7------7---10--7-------7--|
-5------5---8---5-------5--|

---------------------------------------------------|
---------------------------------------------------|
-----5---------------5--------5---------------5----|	x1
-------7--5-5h7--------7--------7--5-5h7--------7--|
-5h7-------------5h7------5h7-------------5h7------|
---------------------------------------------------|

---------------------------------------------------|
---------------------------------------------------|
-----7---------------7--------5---------------5----|	x1
-------9--7-7h9--------9--------7--5-5h7--------7--|
-7h9-------------7h9------5h7-------------5h7------|
---------------------------------------------------|

 Am	Am			Am	Am
-5------5-----------------------5-------5-5--|
-5------5-----------------------5-------5-5--|
-5------5-----------------------5-------5-5--|	x1
-7------7-----------------------7-------7-7--|
-7------7-----------------------7-------7-7--|
-5------5-----------------------5-------5-5--|

 Bm	Bm	Bm	Bm
-7------7-------7-------7--|
-7------7-------7-------7--|
-7------7-------7-------7--|	x1
-9------9-------9-------9--|
-9------9-------9-------9--|
-7------7-------7-------7--|

 Bm	Bm  D	Bm   Bb	Bm
-7------7---10--7----6--7--|
-7------7---10--7----6--7--|
-7------7---11--7----7--7--|	x1
-9------9---12--9----8--9--|
-9------9---12--9----8--9--|
-7------7---10--7----6--7--|

 Bm	Bm	Bm	Bm
-7------7-------7-------7--|
-7------7-------7-------7--|
-7------7-------7-------7--|	x2
-9------9-------9-------9--|
-9------9-------9-------9--|
-7------7-------7-------7--|

 Bm	Bm  D	Bm	Bm
-7------7---10--7-------7--|
-7------7---10--7-------7--|
-7------7---11--7-------7--|	x1
-9------9---12--9-------9--|
-9------9---12--9-------9--|
-7------7---10--7-------7--|

-----------------------------------------------------------------------------|
-----------------------------------------------------------------------------|
-----7---------------7---------8------------------9-------------------10-----|
--------9--7-7h9--------9---------10--8-8h10---------11--9-9h11-----------12-|
-7h9-------------7h9------8h10---------------9h11---------------10h12--------|
-----------------------------------------------------------------------------|

------------|
------------|
------------|
--10-10h12--|
------------|
------------|

-------------------------------------------------------------------|
-------------------------------------------------------------------|
-------11---------------------12-----------------------------------|	x1
----------13--11-11h13-----------14--12-12h14--12-12h14--12-12h14--|
-11h13------------------12h14--------------------------------------|
-------------------------------------------------------------------|

 Am     Am  	C   Am	Am  G   G#  Am
-5------5-------8---5---5---3---4---5--|
-5------5-------8---5---5---3---4---5--|
-5------5-------9---5---5---4---5---5--|	x1
-7------7-------10--7---7---5---6---7--|
-7------7-------10--7---7---5---6---7--|
-5------5-------8---5---5---3---4---5--|





Comments


Popular Dispatch tabs & chords
Mission 2 Bass Tabs
Railway Bass Tabs
Circles Around The Sun Chords
Valentine Chords
Cover This 1 Tabs
Flying Horses Intro 1 Tabs
Gone Tabs
Headlights Tabs
Two Coins 2 Tabs
Two Coins 4 Tabs


Song lyrics



↑ Back to top | Tablatures and chords are parodies/interpretations of the original songs. You may use it for private study, scholarship, research or language learning purposes only
© 2014 AZChords.com Contact us | Privacy policy | DMCA | Add/correct tabs | Request tabs | Top 50 tabs