» » »

Dispatch, Cover This Bass tabs (ver.1)

Artists:  A B C D E F G H I J K L M N O P Q R S T U V W X Y Z # 

Cover This Bass tabs (ver.1)

Dispatch Tabs
 Rating:
4/5 (4 votes)
Cover This lessons Tabs too difficult? Try these video lessons and learn fast
                (Live)
Dispatch
Cover This (Live)

This song isn’t too hard, there are just a few parts that are tricky to play and hear. I
didn’t tab the slides perfectly, but just listen to the song for timing.


Intro    Verse
|--------|G------------------------------------------|
|-guitar-|D------------------------------------------|
|--------|A--------\5-5-5-555/-3-3-3-333-------------|
|--------|E-6-6-6------------------------\3-3-3-333--|

Chorus                          (Ohh…)
G------------------------------|--------------------------------|
D------------------------------|--------------------------------|
A--------555555/-333333--------|-----555555/-333333-------------|
E-666666----------------\333333|-6~-----------------\333333-333-|

Verse 2 (play variations, listen to the song)
G--------------------------------|
D--------------------------------| X2
A--------555555/-333333----------|
E-666666----------------\333333--|

Chorus                          (Ohh..)
G------------------------------|--------------------------------|
D------------------------------|--------------------------------|
A--------555555/-333333--------|-----555555/-333333-------------|
E-666666----------------\333333|-6~-----------------\333333-333-|

Bridge (So hey…)               (Do you need somebody…)
G------------------------------|---------------------------------|
D------------------------------|---------------------------------|
A--------------8~--------------|-3-3-3-3-3-3-3-3-----------------|
E-6~---------------------------|-----------------3-3-3-3-3-3-3-3-|

(Cause I think...)               (This part is hard to hear, improv)
G------------------------------|-------------------|
D—-----------------------------|-----7-x55-6h7-----|
A-6~---------------------------|-555----------7p5--|  X2
E----------------1~------------|-------------------|

                   (Just close your eyes…)
G--------------------------------------------------|
D--------------------------------------------------|
A------------------3~----------------5555555555555-|
E-x3-x3-x3-x3-x3-----------------------------------|

Chorus                          (Ohh...)
G------------------------------|------------------------------------|
D------------------------------|------------------------------------|
A--------555555/-333333--------|--------555--555/-333333------------|
E-666666----------------\333333|-666666-----------------\333333-333-|


G------------------------------------------------------------------|
D------------------------------------------------------------------|
A---------5~------3~------------------------55-5555\-333333--------|
E-6~----------------------3~------6~-----------------------333333--|

Outro
(This part is played with a lot of variations and improv)

G-----------------------------------------------|
D-----------------------------------------------|
A-5-55555\8--5-555----3\8-5--5-55555\8--333333--| X2
E------------------55---------------------------|

G----------------------------------------|
D----------------------------------------|
A—3h5-55-555-3-555-555-3-555-555-33333---|  X2
E----------------------------------------|

G---------------------------------------------|
D---------------------------------------------|
A-5-55555\8--5-555----3\8-5--5-55555\8—333333-|
E------------------55-------------------------|

That’s basically it, good luck.
            
Submit corrections

comments powered by Disqus
↑ Back to top | Dispatch Bass for Cover This. Lyrics for acoustic guitar and electric guitar. Tablatures and chords are parodies/interpretations of the original songs. You may use it for private study, scholarship, research or language learning purposes only