» » »

Dispatch, Carry You Tabs (ver.3)

Artists:  A B C D E F G H I J K L M N O P Q R S T U V W X Y Z # 

Carry You Tabs (ver.3)

Dispatch Tabs
 Rating:
4/5 (6 votes)
Carry You lessons Tabs too difficult? Try these video lessons and learn fast
                Dispatch/One Fell Swoop
Who Are We Living For
Carry You

I give credit to him.

		     D
---------------------5--|
-7h8-7---------------7--|
-7---7--7h9-7--------7--|	x6
--------7-----7------7--|
--------------7h9-7--5--|
------------------------|

	Bm	G	D	Bm	G	D
--------2-------3-------2-------2-------3-------2--|
--------3-------3-------3-------3-------3-------3--|
--------4-------4-------2-------4-------4-------2--|	x1
-----0--4-------5-------0-------4-------5-------0--|
-0h2----2-------5---------------2-------5----------|
----------------3-----------------------3----------|

 Bm	G	D	Bm	G
-2------3-------2-------2-------3--|
-3------3-------3-------3-------3--|
-4------4-------2-------4-------4--|	x1
-4------5-------0-------4-------5--|
-2------5---------------2-------5--|
--------3-----------------------3--|

	       	     D
---------------------5--|
-7h8-7---------------7--|
-7---7--7h9-7--------7--|	x5
--------7-----7------7--|
--------------7h9-7--5--|
------------------------|

	Bm	G	D	Bm	G	D
--------2-------3-------2-------2-------3-------2--|
--------3-------3-------3-------3-------3-------3--|
--------4-------4-------2-------4-------4-------2--|	x1
-----0--4-------5-------0-------4-------5-------0--|
-0h2----2-------5---------------2-------5----------|
----------------3-----------------------3----------|

 Bm	G	D	Bm	G	D
-2------3-------2-------2-------3-------2--|
-3------3-------3-------3-------3-------3--|
-4------4-------2-------4-------4-------2--|	x1
-4------5-------0-------4-------5-------0--|
-2------5---------------2-------5----------|
--------3-----------------------3----------|

LEAD:
-10-7----------------------------------------------|
-------10-7----------------------------------------|
---------------7-9-9s10-9-7-9-7h9p7----7---7----7--|
-------------9-----------------------9---9---9-----|
---------------------------------------------------|
---------------------------------------------------|

------------------------------------------------------------------------------------------------|
----------------------------------------------------7-7--7s10-10-10--10s12--12-12--12s15-15-15--|
-------7----------------------------------7-7--7h10---------------------------------------------|
-9-7-9---9-7-9-7-----------------7-7--7h9-------------------------------------------------------|
-----------------9s7--7-7-7--7h9----------------------------------------------------------------|
------------------------------------------------------------------------------------------------|

----------------------------------------------------------------------------------|
-15-12----12----------------------------------------------------------------------|
-------14----14-11-9-7-9b10-9-7-9-7-----7---7---7---7---7---7-9-7---7---7---7---7-|
--------------------------------------9---9---9---9---9---9-------9---9---9---9---|
----------------------------------------------------------------------------------|
----------------------------------------------------------------------------------|

-------------------|
-------------------|
--7---7---7-9-7---7|
9---9---9-------9--|
-------------------|
-------------------|

--------------------------------------------------------------|
--------------------------------------------------------------|
---7---7---7---7---7---7-9-7---7---7---7---7---7---7---7-9-7--|
-9---9---9---9---9---9-------9---9---9---9---9---9---9--------|
--------------------------------------------------------------|
--------------------------------------------------------------|

 Bm	G	D	Bm	G	D
-2------3-------2-------2-------3-------2--|
-3------3-------3-------3-------3-------3--|
-4------4-------2-------4-------4-------2--|	x2
-4------5-------0-------4-------5-------0--|
-2------5---------------2-------5----------|
--------3-----------------------3----------|

 Bm	G	D	Bm	G
-2------3-------2-------2-------3--|
-3------3-------3-------3-------3--|
-4------4-------2-------4-------4--|	x1
-4------5-------0-------4-------5--|
-2------5---------------2-------5--|
--------3-----------------------3--|

------------------------|
-7h8-7------------------|
-7---7--7h9-7-----------|	x1
--------7-----7---------|
--------------7h9-7--5--|
------------------------|
            
Submit corrections

comments powered by Disqus
↑ Back to top | Dispatch Tabs for Carry You. Lyrics for acoustic guitar and electric guitar. Tablatures and chords are parodies/interpretations of the original songs. You may use it for private study, scholarship, research or language learning purposes only