» » »

Carry You Tabs (ver.1)

Artists:  A B C D E F G H I J K L M N O P Q R S T U V W X Y Z # 

Carry You Tabs (ver.1)

Dispatch
Rating:
4/5 (12 votes)

Hard to play? Try these video lessons and learn fast.
                CARRY YOU


Tuning: Standard EADGBe

Legend:
| s  slide to
| h  hammer-on
| p  pull-off
| ~  vibrato
| x  dead note


MAIN VERSE RIFF:

e|--2h3--2------2-------------2--2--2-2-x-x---|
B|--3----3--3---3---3---3-----3--3--3-3-x-x---|
G|--2----2--2h4-2---x---x-----2--2--2-2-x-x---|
D|--0----0--0---0---2h4-2--0--0--0------------|
A|--------------------------------------------|
E|--------------------------------------------|

CHORUS:

Althought the bass mostly plays this, sometimes just before beginning
the chorus he plays this right into the first chord:

e|---------|
B|---------|
G|---------|
D|------0--|
A|--0h2----|
E|---------|

"I will carry you.."

e|--2-----3----------------|
B|--3-----3-----7----------|
G|--4-----4-----7----------|
D|--4-----5-----7----------|
A|--2-----5-----5----------|
E|--------3----------------| x 3

e|--2-----3-----2h3-2--------------------------|
B|--3-----3-----3---3--3---3----3---3----------|
G|--4-----4-----2---2--2h4-2----x---x----------|
D|--4-----5-----0---0--0---0----2h4-2-0--------|
A|--2-----5------------------------------------|
E|--------3------------------------------------|


REPEAT VERSE

CHORUS

"I will carry you.."

e|--2-----3----------------|
B|--3-----3-----7----------|
G|--4-----4-----7----------|
D|--4-----5-----7----------|
A|--2-----5-----5----------|
E|--------3----------------| x 4


GUITAR SOLO

e|-10----------------------------------------------------------------
B|----12~~--11-------------------------------------------------------
G|--------------12--------7-9-9s10-9--7-9-7-9-7~------7---7----7~----
D|----------------------9--------------------------9----9---9--------
A|-------------------------------------------------------------------
E|-------------------------------------------------------------------

  ------------------------------------------------------------------------
  ---------------------------------------7-7-7s10-10-10-10s12-12-12-12s15-
  -------7-----------------------7-7-7h9----------------------------------
  -9-7-9---9--9p7------7-7-7-7h9------------------------------------------
  ----------------9p7-----------------------------------------------------
  ------------------------------------------------------------------------

  -----------------------------------------------
  ----15--12--10-12-10---------------------------
  ---------------------11-9-7-9s10-9--7-9-7~~----
  -----------------------------------------------
  -----------------------------------------------
  -----------------------------------------------

  -----------------------------------
  -----------------------------------
  ---7---7---7---7---7---7-9-7---7---
  -9---9---9---9---9---9-------9-----
  -----------------------------------
  ----------------------------------- x 3

  -------------------------------|
  -------------------------------|
  ---7---7---7---7--9--7---------|
  -9---9---9---9--------------0--|
  ------------------------0h2----|
  -------------------------------|


OUTRO

e|--2-----3----------------|
B|--3-----3-----7----------|
G|--4-----4-----7----------|
D|--4-----5-----7----------|
A|--2-----5-----5----------|
E|--------3----------------| x 5

e|--2-----3-----2h3-2--------------------------|
B|--3-----3-----3---3--3---3----3---3----------|
G|--4-----4-----2---2--2h4-2----x---x----------|
D|--4-----5-----0---0--0---0----2h4-2-0--------|
A|--2-----5------------------------------------|
E|--------3------------------------------------|


Feb. 25, 2007
===========================================================================
            
Hard to play? Try these video lessons and learn fast. | Correct




comments powered by Disqus
↑ Back to top | Tablatures and chords are parodies/interpretations of the original songs. You may use it for private study, scholarship, research or language learning purposes only