» » »

Dispatch, Bulls On Parade Tabs (ver.1)

Artists:  A B C D E F G H I J K L M N O P Q R S T U V W X Y Z # 

Bulls On Parade Tabs (ver.1)

Dispatch Tabs
 Rating:
3.3/5 (6 votes)
Bulls On Parade lessons Tabs too difficult? Try these video lessons and learn fast
1
                Dispatch/One Fell Swoop
Bulls on Parade
Who Are We Living For (Remastered)

------------------------------------------|
------------------------------------------|
------------------------------------------|     x2
-4----4-4----4--4-----4----4-4----4--4----|
------------------------------------------|
---2------2-------2-----2------2-------2--|

--------------------------|
--------------------------|
--------------------------|     x8
-4-4-x-x-4-4-x-x-x-x-x-x--|
-4-4-x-x-4-4-x-x-x-x-x-x--|
-2-2-x-x-2-2-x-x-x-x-x-x--|

*BASS LINE**

-------------------------------------|
-------------------------------------|
-------------------------------------|  x2
-4-4-x-4--4-4-x-4--4-4-x-4--5-5s4-4--|
-4-4-x-4--4-4-x-4--4-4-x-4--5-5s4-4--|
-2-2-x-2--2-2-x-2--2-2-x-2--3-3s2-2--|

-------------------------------------|
-------------------------------------|
-------------------------------------|  x2
-4-4-x-4--4-4-x-4--4-4-x-4--4-4-x-4--|
-4-4-x-4--4-4-x-4--4-4-x-4--4-4-x-4--|
-2-2-x-2--2-2-x-2--2-2-x-2--2-2-x-2--|

--------------------------|
--------------------------|
--------------------------|     x4
-4-4-x-x-4-4-x-x-x-x-x-x--|
-4-4-x-x-4-4-x-x-x-x-x-x--|
-2-2-x-x-2-2-x-x-x-x-x-x--|

*BASS LINE**

------------------------------------------------------------------------|
------------------------------------------------------------------------|
------------------------------------------------------------------------|x1
-4-4-x-4--4-4-x-4--4-4-x-4--4-4-x-4--4-4-x-4--4-4-x-4--4-4-x-4--5-5s4-4-|
-4-4-x-4--4-4-x-4--4-4-x-4--4-4-x-4--4-4-x-4--4-4-x-4--4-4-x-4--5-5s4-4-|
-2-2-x-2--2-2-x-2--2-2-x-2--2-2-x-2--2-2-x-2--2-2-x-2--2-2-x-2--3-3s2-2-|

-------------------------------------|
-------------------------------------|
-------------------------------------|  x2
-4-4-x-4--4-4-x-4--4-4-x-4--4-4-x-4--|
-4-4-x-4--4-4-x-4--4-4-x-4--4-4-x-4--|
-2-2-x-2--2-2-x-2--2-2-x-2--2-2-x-2--|

--------------------------------------------------------------------------|
--------------------------------------------------------------------------|
--------------------------------------------------------------------------|x1
-4----4-4----4--4-----4----4-4----4--4----4----4-4----4--4-----4----4-4---|
--------------------------------------------------------------------------|
---2------2-------2-----2------2-------2----2------2-------2-----2------2-|
            
Submit corrections

comments powered by Disqus
↑ Back to top | Dispatch Tabs for Bulls On Parade. Lyrics for acoustic guitar and electric guitar. 1 Tablatures and chords are parodies/interpretations of the original songs. You may use it for private study, scholarship, research or language learning purposes only