>
 >
Bridges

Bridges Guitar Tabs

Dispatch - Bridges chords, tabs, tablatures, lyrics

Guitar lessons | Add/correct | Request | Top 50 tabs Artists:  A B C D E F G H I J K L M N O P Q R S T U V W X Y Z 0-9

Bridges Guitar Tabs – Dispatch

CD, Sheet music, Poster

Do you like Bridges? Share with your friends now
ChordsTabsTabs v2Ukulele
BRIDGES
By Dispatch
Written by Pete Heimbold


Tuning: Standard EADGBe

***Capo on 3rd Fret***

LEGEND:

| /  slide up
| \  slide down
| h  hammer-on
| p  pull-off
| ~  vibrato
| x  dead note


INTRO

e|-0--------0----0--------0---|-----------------------------|
B|------3-------------3-------|-1--------1----0--------1----|
G|----0-------0-----0---------|------0-------------0--------|
D|-5------5------4------4---0-|----2-------2-----2-------2--|
A|----------------------------|-3------3--------------------|
E|----------------------------|---------------3------3------|

  ---------------0------------|---------------0------------|
  -1----0---1-------------1---|-1----0---1----1------------|
  --------------------2-------|---------------2------------|
  ----2-------2-----2-------2-|----2-------2--2------------|
  -0------0------0------0-----|-0------0------0------------|
  ----------------------------|----------------------------|


VERSE

chords (named as if no capo present):

     Em9   C   C7M  Am   Em    G  Cadd9  D
e|----0----0----0----0----0----3----0----2----|
B|----3----1----0----1----0----3----3----3----|
G|----0----0----0----2----0----0----0----2----|
D|----4----2----2----2----2----0----2----0----|
A|----5----3----3----0----2----2----3---------|
E|------------------------0----3--------------|

Em9                         C            C7M
  The furrowed bed of sand    worries again.

Am
  As it had before; waves left the land.

Em9                                C          C7M
 For the falling leaves the child,  weeping alone.  He's

Am
  Lettin' go of the anchor and all the lines.

Em                               C
  Waiting for the fingers of the grey wave,

       Am            G                    D
Or his mother's hand,  roll over him with endless water,

    Cadd9             D
Ten thousand bridges;  show me father.


GUITAR SOLO 1 (i didn't write it as if there is a capo on 3,
but for the second guitar solo you'll see the capo makes it much
easier)

e|----------------------------------------------|
B|----------------------------------------------|
G|------7-8-8/10~~------------7-7-7\5~~---------|
D|----8---------------------8-------------------|
A|--8---------------------8---------------------|
E|----------------------------------------------|

CHORDS PLAYED OVER GUITAR SOLO:

Em9      C  C7M    Am


VERSE 2

chords:

     Em9   C   C7M  Am   Em    G  Cadd9  D
e|----0----0----0----0----0----3----0----2----|
B|----3----1----0----1----0----3----3----3----|
G|----0----0----0----2----0----0----0----2----|
D|----4----2----2----2----2----0----2----0----|
A|----5----3----3----0----2----2----3---------|
E|------------------------0----3--------------|

Em9                      C    C7m
 Now I'm older now, much older

         Am
And this wake can take me out to sea, I feel the pull beneath my feet.

Em9                         C       C7M
  And I can see her, she is calling me.

      Am
I can feel her there, I can feel her there,

Em                               C
Waiting for the fingers of the grey wave,

       Am             G                    D
Or his mother's hand,  roll over him with endless water,

    Cadd9             D
Ten thousand bridges;  show me father.


GUITAR SOLO 2 (acoustic guitar chords written above score):

(I would recommend playing the solo as well with a capo on 3rd.  Simplifies your work as you will see...)


Em9                 C                    Am

e|-5--5/6-6-6/8--8/10--10h11--11-10-8-6-5--5h6p5---------------------------|
B|-----------------------------------------------6--6/8----6-6/4-4p3-4p3---|
G|-----------------------------------------------------------------------5-|
D|-------------------------------------------------------------------------|
A|-------------------------------------------------------------------------|
E|-------------------------------------------------------------------------|

Em9                            C            C7M      Am

e|--------------------------------------------------------11---11\--10----|
B|------------------------------------------------------------------------|
G|----------------------------------7-7/8-8/10----8-/12-12----------------|
D|-----------------5h7-8h7-5-8--10----------------------------------------|
A|-5h6-3h5-6h8-5h6--------------------------------------------------------|
E|------------------------------------------------------------------------|

  ---------------|
  ----10---10----|
  ---------------|
  -8-/10---------|
  ---------------|
  ---------------|

  Em               C                       Am                      G

e|-----------------------6h8--8p6-8/10--10---8-----------------------------|
B|--------------6/8--6h8-------------------8----11-10----------------------|
G|-3h5-5/7--5h7---------------------------------------10---10/7-7-8--7-7---|
D|-------------------------------------------------------------------------|
A|-------------------------------------------------------------------------|
E|-------------------------------------------------------------------------|

              D                               Cadd9

  -------------------------------------------------------------------|
  -------------------------------------------------------------------|
  -7h8--8/10--10/12-12-12--10h12-12/14--14h15-15-15--12-12/14-14-14--|
  -------------------------------------------------------------------|
  -------------------------------------------------------------------|
  -------------------------------------------------------------------|

                         D                                     Em

  --------------------------------------------------------------------|
  --------------------------------------------------------------------|
  -10-10/12-12-12--8-8/10-10-10--7-7h8p7-5p3-5h7p5p3---3---3h5-3------|
  ---------------------------------------------------5---5------------|
  --------------------------------------------------------------------|
  --------------------------------------------------------------------|


                                 C
Waiting for the fingers of the grey wave,

       Am             G                    D
Or his mother's hand,  roll over him with endless water,

    Cadd9             D
Ten thousand bridges;  show me father.

Em                               C
Waiting for the fingers of the grey wave,

       Am             G                    D
Or his mother's hand,  roll over him with endless water,

    Cadd9             D
Ten thousand bridges;  show me father.

Em9       C   G

=========================================================================





Comments


Popular Dispatch tabs & chords
Time Served Bass Tabs
Bullet Holes Chords
Circles Around The Sun 1 Chords
Flying Horses Chords
Cut It Ya Match It Intro Tabs
General 1 Tabs
Spades Tabs
Time Served Gut The Van Tabs
Hey Hey Ukulele
Steeples Ukulele


Song lyrics



↑ Back to top | Tablatures and chords are parodies/interpretations of the original songs. You may use it for private study, scholarship, research or language learning purposes only
© 2014 AZChords.com Contact us | Privacy policy | DMCA | Add/correct tabs | Request tabs | Top 50 tabs