>
 >
Blood Escaping Man

Blood Escaping Man Guitar Tabs

Dispatch - Blood Escaping Man chords, tabs, tablatures, lyrics

Guitar lessons | Add/correct | Request | Top 50 tabs Artists:  A B C D E F G H I J K L M N O P Q R S T U V W X Y Z 0-9

Blood Escaping Man Guitar Tabs – Dispatch

CD, Sheet music, Poster

Do you like Blood Escaping Man? Share with your friends now
Tabs
Dispatch/One Fell Swoop
Unreleased (Played @ The Avalon 12/29/00 Avalon)
Blood Escaping Man (into Ask the Axis by Jimi Hendrix)

 Am	C	G	E
-0------0-------3-------0--|
-1------1-------3-------0--|
-2------0-------0-------1--|	x1
-2------2-------0-------2--|
-0------3-------2-------2--|
----------------3-------0--|

 Am	C	F	Am
-0------0-------1-------0--|
-1------1-------1-------1--|
-2------0-------2-------2--|	x1
-2------2-------3-------2--|
-0------3-------3-------0--|
----------------1----------|

 Am	C	D	D
-0------0-------2-------2--|
-1------1-------3-------3--|
-2------0-------2-------2--|	x1
-2------2-------0-------0--|
-0------3------------------|
---------------------------|

 Am	F	D	D
-0------1-------2-------2--|
-1------1-------3-------3--|
-2------2-------2-------2--|	x1
-2------3-------0-------0--|
-0------3------------------|
--------1------------------|

 Am	Am	F   C	E	E
-0------0-------1---0---0-------0--|
-1------1-------1---1---0-------0--|
-2------2-------2---0---1-------1--|	x1
-2------2-------3---2---2-------2--|
-0------0-------3---3---2-------2--|
----------------1-------0-------0--|

 Am	C	F	D
-0------0-------1-------2--|
-1------1-------1-------3--|
-2------0-------2-------2--|	x1
-2------2-------3-------0--|
-0------3-------3----------|
----------------1----------|

 Am	Am	F	Am
-0------0-------1-------0--|
-1------1-------1-------1--|
-2------2-------2-------2--|	x1
-2------2-------3-------2--|
-0------0-------3-------0--|
----------------1----------|

 Am	Am	Am	D
-0------0-------0-------2--|
-1------1-------1-------3--|
-2------2-------2-------2--|	x1
-2------2-------2-------0--|
-0------0-------0----------|
---------------------------|

 Am	F	D	D
-0------1-------2-------2--|
-1------1-------3-------3--|
-2------2-------2-------2--|	x1
-2------3-------0-------0--|
-0------3------------------|
--------1------------------|

 Am	Am	F   C	E	E
-0------0-------1---0---0-------0--|
-1------1-------1---1---0-------0--|
-2------2-------2---0---1-------1--|	x1
-2------2-------3---2---2-------2--|
-0------0-------3---3---2-------2--|
----------------1-------0-------0--|

 F	F   G   Am	Am	G	Am
-1------1---3---0-------0-------3-------0--|
-1------1---3---1-------1-------3-------1--|
-2------2---0---2-------2-------0-------2--|	x1
-3------3---0---2-------2-------0-------2--|
-3------3---2---0-------0-------2-------0--|
-1------1---3-------------------3----------|

 F	F   G   Am	G  E  Dm B5
-1------1---3---0-------3--0--1-----|
-1------1---3---1-------3--0--3-----|
-2------2---0---2-------0--1--2--4--|	x1
-3------3---0---2-------0--2--0--4--|
-3------3---2---0-------2--2-----2--|
-1------1---3-----------3--0--------|

 Am	C	G	E
-0------0-------3-------0--|
-1------1-------3-------0--|
-2------0-------0-------1--|	x1
-2------2-------0-------2--|
-0------3-------2-------2--|
----------------3-------0--|

 Am	C	F	Am
-0------0-------1-------0--|
-1------1-------1-------1--|
-2------0-------2-------2--|	x1
-2------2-------3-------2--|
-0------3-------3-------0--|
----------------1----------|

 Am	C	D	D
-0------0-------2-------2--|
-1------1-------3-------3--|
-2------0-------2-------2--|	x1
-2------2-------0-------0--|
-0------3------------------|
---------------------------|

 Am	F	D	D
-0------1-------2-------2--|
-1------1-------3-------3--|
-2------2-------2-------2--|	x1
-2------3-------0-------0--|
-0------3------------------|
--------1------------------|

 Am	Am	F   C	E	E
-0------0-------1---0---0-------0--|
-1------1-------1---1---0-------0--|
-2------2-------2---0---1-------1--|	x1
-2------2-------3---2---2-------2--|
-0------0-------3---3---2-------2--|
----------------1-------0-------0--|

 F	F   G   Am	Am	G	Am
-1------1---3---0-------0-------3-------0--|
-1------1---3---1-------1-------3-------1--|
-2------2---0---2-------2-------0-------2--|	x1
-3------3---0---2-------2-------0-------2--|
-3------3---2---0-------0-------2-------0--|
-1------1---3-------------------3----------|

 F	F   G   Am	G  E  D5 B5
-1------1---3---0-------------------|
-1------1---3---1-------------------|
-2------2---0---2-------------------|	x1
-3------3---0---2-------------7--4--|
-3------3---2---0-------5--2--5--2--|
-1------1---3-----------3--0--------|

 Am	C	G	E
-0------0-------3-------0--|
-1------1-------3-------0--|
-2------0-------0-------1--|	x1
-2------2-------0-------2--|
-0------3-------2-------2--|
----------------3-------0--|

 Am	C	F	Am
-0------0-------1-------0--|
-1------1-------1-------1--|
-2------0-------2-------2--|	x1
-2------2-------3-------2--|
-0------3-------3-------0--|
----------------1----------|

 Am	C	F	D
-0------0-------1-------2--|
-1------1-------1-------3--|
-2------0-------2-------2--|	x1
-2------2-------3-------0--|
-0------3-------3----------|
----------------1----------|

 Am	F	D	D
-0------1-------2-------2--|
-1------1-------3-------3--|
-2------2-------2-------2--|	x1
-2------3-------0-------0--|
-0------3------------------|
--------1------------------|

 Am	Am	F   C	E	E
-0------0-------1---0---0-------0--|
-1------1-------1---1---0-------0--|
-2------2-------2---0---1-------1--|	x1
-2------2-------3---2---2-------2--|
-0------0-------3---3---2-------2--|
----------------1-------0-------0--|

 Am	C	G	E
-0------0-------3-------0--|
-1------1-------3-------0--|
-2------0-------0-------1--|	x5
-2------2-------0-------2--|
-0------3-------2-------2--|
----------------3-------0--|

 Am	C	E	E
-0------0-------0-------0--|
-1------1-------0-------0--|
-2------0-------1-------1--|	x1
-2------2-------2-------2--|
-0------3-------2-------2--|
----------------0-------0--|

 Am	C	G	E
-0------0-------3-------0--|
-1------1-------3-------0--|
-2------0-------0-------1--|	x1
-2------2-------0-------2--|
-0------3-------2-------2--|
----------------3-------0--|

 Am	C	E	E
-0------0-------0-------0--|
-1------1-------0-------0--|
-2------0-------1-------1--|	x1
-2------2-------2-------2--|
-0------3-------2-------2--|
----------------0-------0--|

 Am	C	G	E
-0------0-------3-------0--|
-1------1-------3-------0--|
-2------0-------0-------1--|	x1
-2------2-------0-------2--|
-0------3-------2-------2--|
----------------3-------0--|

 Am	C	F	Am
-0------0-------1-------0-------|
-1------1-------1-------1-------|
-2------0-------2-------2-------|    x1
-2------2-------3-------2-------|
-0------3-------3-------0-------|
----------------1---------------|

 Am	C	G	E
-0------0-------3-------0--|
-1------1-------3-------0--|
-2------0-------0-------1--|	x3
-2------2-------0-------2--|
-0------3-------2-------2--|
----------------3-------0--|

 Am	C	F	D
-0------0-------1-------2--|
-1------1-------1-------3--|
-2------0-------2-------2--|	x1
-2------2-------3-------0--|
-0------3-------3----------|
----------------1----------|

 Am	F	D	D
-0------1-------2-------2--|
-1------1-------3-------3--|
-2------2-------2-------2--|	x2
-2------3-------0-------0--|
-0------3------------------|
--------1------------------|

 Am	Am	F   C	E	E
-0------0-------1---0---0-------0--|
-1------1-------1---1---0-------0--|
-2------2-------2---0---1-------1--|	x1
-2------2-------3---2---2-------2--|
-0------0-------3---3---2-------2--|
----------------1-------0-------0--|

 F	F   G   Am	Am	G	Am
-1------1---3---0-------0-------3-------0--|
-1------1---3---1-------1-------3-------1--|
-2------2---0---2-------2-------0-------2--|	x1
-3------3---0---2-------2-------0-------2--|
-3------3---2---0-------0-------2-------0--|
-1------1---3-------------------3----------|

 F	F   G   Am		x1
-1------1---3---0-------------------|
-1------1---3---1-------------------|
-2------2---0---2-------------------|	x1
-3------3---0---2-------------------|
-3------3---2---0-------------5--2--|
-1------1---3-----------3--0--------|

 F	F   G   Am	Am	G	Am
-1------1---3---0-------0-------3-------0--|
-1------1---3---1-------1-------3-------1--|
-2------2---0---2-------2-------0-------2--|	x1
-3------3---0---2-------2-------0-------2--|
-3------3---2---0-------0-------2-------0--|
-1------1---3-------------------3----------|

 F	F   G   Am	G  E  Dm B5
-1------1---3---0-------3--0--1-----|
-1------1---3---1-------3--0--3-----|
-2------2---0---2-------0--1--2--4--|	x1
-3------3---0---2-------0--2--0--4--|
-3------3---2---0-------2--2-----2--|
-1------1---3-----------3--0--------|

 G  E  Dm B5  G  E  Dm B5 Am
-3--0--1------3--0--1-----0--|
-3--0--3------3--0--3-----1--|
-0--1--2--4---0--1--2--4--2--|	x1
-0--2--0--4---0--2--0--4--2--|
-2--2-----2---2--2-----2--0--|
-3--0---------3--0-----------|





Comments


Popular Dispatch tabs & chords
The General Bass Tabs
Josephine Chords
Mayday Chords
Bang Bang Tabs
Bang Bang 1 Tabs
Cover This Tabs
Cover This 1 Tabs
General 1 Tabs
Other Side Tabs
Walk With You Tabs


Song lyrics



↑ Back to top | Tablatures and chords are parodies/interpretations of the original songs. You may use it for private study, scholarship, research or language learning purposes only
© 2014 AZChords.com Contact us | Privacy policy | DMCA | Add/correct tabs | Request tabs | Top 50 tabs