» » »

Dispatch, Bats In The Belfrey Tabs (ver.1)

Artists:  A B C D E F G H I J K L M N O P Q R S T U V W X Y Z # 

Bats In The Belfrey Tabs (ver.1)

Dispatch Tabs
 Rating:
4.3/5 (6 votes)
Bats In The Belfrey lessons Tabs too difficult? Try these video lessons and learn fast
                Dispatch's Bats in the Belfrey

Intro:
e -4--4--4--4--6-6--6--6-
b -4--4--4--4--6-6--6--6- 
g -4--4--4--4--6-6--6--6-  } Play this 3 times
d -6--6--6--6--6-6--6--6-
a -6--6--6--6--4-4--4--4-
E -4--4--4--4--x-x--x--x-

e -6--6--6--6--6--6--6--6-
b -7--7--7--7--7--7--7--7-
g -8--8--8--8--8--8--8--8-
d -8--8--8--8--8--8--8--8-
a -6--6--6--6--6--6--6--6-
E ------------------------

(1)Verse "Old man river..."
e--4--4--6--6--4--4--6--6--4--4--6--6--6-6--6-6--6-6-
b--4--4--6--6--4--4--6--6--4--4--6--6--7-7--7-7--7-7-
g--4--4--6--6--4--4--6--6--4--4--6--6--8-8--8-8--8-8-
d--6--6--6--6--6--6--6--6--6--6--6--6--6-6--6-6--6-6-
a--6--6--4--4--6--6--4--4--6--6--4--4--x-x--x-x--x-x-
e--4--4--x--x--4--4--x--x--4--4--x--x--x-x--x-x--x-x-

(2)  "Momma we now so hungery..."
e -6----2---6---2---6---2---6--
b -7----2---7---2---7---2---6--
g -8----3---8---3---8---3---6--
d -6----4---6---4---6---4---6--
a ------4-------4-------4---4--
e ------2-------2-------2------


once again, school... i'll finish later
            
Submit corrections

comments powered by Disqus
↑ Back to top | Dispatch Tabs for Bats In The Belfrey. Lyrics for acoustic guitar and electric guitar. Tablatures and chords are parodies/interpretations of the original songs. You may use it for private study, scholarship, research or language learning purposes only