>
 >
Monitor

Monitor Guitar Tabs

Disidente - Monitor chords, tabs, tablatures, lyrics

Guitar lessons | Add/correct | Request | Top 50 tabs Artists:  A B C D E F G H I J K L M N O P Q R S T U V W X Y Z 0-9

Monitor Guitar Tabs – Disidente

CD, Sheet music, Poster

Do you like Monitor? Share with your friends now
Tabs
-------------------------------------------------------------------------------
-------------------------------------------------------------------------------

Tuning: C#-G#-C#-F#-A#-D#

Intro (Guitarra 1)
D#|--------------------------------------------------------------------------|
A#|--------------------------------------------------------------------------|
F#|-99999-10-10-9-----9----9---9---------------------------------------------|
C#|-00000-0--0--0--88---88---8-------10----10---10--10-10-10-10-10-10-10-10--|
G#|-------------------------------88----88----8-----10-10-10-10-10-10-10-10--|
C#|-------------------------------------------------10-10-10-10-10-10-10-10--|


(Guitarra 2)
D#|-------------------------------------------------------------|
A#|-------------------------------------------------------------|
F#|-------------------------------------------------------------|
C#|-77777777-88888888-1010101010101010-10-10-10-10-10-10-10-10--|
G#|-55555555-88888888-8-8-8-8-8-8-8-8--10-10-10-10-10-10-10-10--|
C#|----------88888888------------------10-10-10-10-10-10-10-10--|



Verso (Guitarra 2)
D#|------------------------------------------|
A#|------------------------------------------|
F#|------------------------------------------|
C#|-7777777777-------------------------------|
G#|-5555555555-8888888888-33333333333333333--|
C#|------------8888888888-33333333333333333--|



Coro, es igual que el intro pero termina asi (Guitarra 1)
D#|-----------------------|
A#|-----------------------|
F#|-----9---9------7---7--|
C#|-000---0----000---0----|
G#|-00---------00---------|
C#|-00---------00---------|



vuelves a tocar el intro y despues sigue el segundo verso, que es igual
que el primero pero este tiene un riff de la guitarra 1
D#|------------------------------------------------------------|
A#|-------------------------esto tambien lo tocas por un rato--|
F#|-tocas esto por un rato--14-14-14-14-14-14-14-14-14-14-14---|
C#|-7777777777777777777777-------------------------------------|
G#|------------------------------------------------------------|
C#|------------------------------------------------------------|

la ultima vez que dice: "todo se ve muy bien desde ahi..."
no estoy poniendo exactamente cuantas veces se toca cada nota
ahi ustedes vayan fijandose mas o menos en eso
D#|--------------------------------------------------------------------------|
A#|----------------------13-13-13-13-13-13-15-15-15-13-13-13-13-13^-13^-13^--|
F#|-14-14-14-14-14-14-14-----------------------------------------------------|
C#|--------------------------------------------------------------------------|
G#|--------------------------------------------------------------------------|
C#|--------------------------------------------------------------------------|



Se toca el coro otra vez



Luego va este interlude (Guitarra 2)
D#|---------|
A#|---------|
F#|---------| se repite 4 veces
C#|----777--|
G#|-55-555--|
C#|-00--00--|

D#|----------------|
A#|----------------|
F#|----------------| se repite varias veces
C#|-10---10-9-9----|
G#|-8----8--7-7----|
C#|-0-00-0*-----0--|

(Guitarra 1)
D#|--------------------|
A#|--------------------|
F#|--------------------|
C#|-10-10-10-10-10-10--|toca esa nota durante todo el interlude
G#|--------------------|
C#|--------------------|


vuelves a tocar el coro

Final (visor, visor...)(Guitarra 1)
D#|----------------------------------|
A#|------13------13------13------13--|
F#|-9h10----9h10----9h10----9h10-----|
C#|----------------------------------|
G#|----------------------------------|
C#|----------------------------------|

Mientras la guitarra 1 toca eso la guitarra 2 sigue tocando los acordes
del coro

y al final se repite el principio del interlude:
D#|---------|            ----|
A#|---------|            ----|
F#|---------|            ----|
C#|----777--|varias veces-7--| terminas la rola con este acorde
G#|-55-555--|            -5--|
C#|-00--00--|            -0--|

pues eso es todo, si alguien tiene comentarios,
dudas, sugerencias, o nada mas quiere platicar ahi esta mi mail arriba :)



| *  let ring
| ^  bend
| /  slide up
| \  slide down
| h  hammer-on
| p  pull-off
| ~  vibrato
| +  harmonic
| x  Mute note
===============================================================================





Comments


Popular Disidente tabs & chords
Ayer Chords
Ausente Tabs
Decadencia Tabs
Enemigo Tabs
Enemigo 1 Tabs
Gris Tabs
Gris Intro Tabs
Igual Que Tu Tabs
Ayer Ukulele
El Rock Ha Muerto Ukulele


Song lyrics



↑ Back to top | Tablatures and chords are parodies/interpretations of the original songs. You may use it for private study, scholarship, research or language learning purposes only
© 2014 AZChords.com Contact us | Privacy policy | DMCA | Add/correct tabs | Request tabs | Top 50 tabs