» » »

Disidente, Girar Tabs (ver.1)

Artists:  A B C D E F G H I J K L M N O P Q R S T U V W X Y Z # 

Girar Tabs (ver.1)

Disidente Tabs
 Rating:
4.2/5 (5 votes)
Girar lessons Tabs too difficult? Try these video lessons and learn fast
                -------------------------------------------------------------------------------
-------------------------------------------------------------------------------

Tuning:

Excelente canción de Lobo.

intro/verso
guitarra 1
e|-----8---------8---------8---------8----|
B|---6---6-----6---6-----6---6-----6---6--|
G|----------------------------------------|
D|-----------8-------8-6-------6-6--------|
A|-4-------4------------------------------|
E|----------------------------------------|

guitarra 2 entra con el bajo "y giraaar, y giraaar"
e|----------|
B|----------|
G|-6--3-----|
D|-6--3--6--| toca estos acordes 
A|-4--1--6--|
E|-------4--|

Coro 
(guitarra 2 toca los mismos acordes nada más alarga su duracion)

Guitarra 1
e|----------13----13--|
B|-13h14-14----14-----|
G|--------------------| x 4
D|--------------------|
A|--------------------|
E|--------------------|
				Estas figuras las repite en cada vuelta
e|----------16----16--|
B|-13h14-14----14-----|
G|--------------------|
D|--------------------| x 4
A|--------------------|
E|--------------------|


| /  slide up
| \  slide down
| h  hammer-on
| p  pull-off
| ~  vibrato
| +  harmonic
| x  Mute note
===============================================================================
            
Submit corrections

comments powered by Disqus
↑ Back to top | Disidente Tabs for Girar. Lyrics for acoustic guitar and electric guitar. Tablatures and chords are parodies/interpretations of the original songs. You may use it for private study, scholarship, research or language learning purposes only