» » »

Decidir Tabs (ver.1)

Artists:  A B C D E F G H I J K L M N O P Q R S T U V W X Y Z # 

Decidir Tabs (ver.1)

Disidente
Rating:
0/5 (0 votes)

Hard to play? Try these video lessons and learn fast.
                -------------------------------------------------------------------------------
-------------------------------------------------------------------------------


Tuning: E bemol

INTRO
e|-------------------------------------------------------------------------------------|
B|---------------2--------------------2-----------------------2--------------------2---|
G|----------2--------2----------2--------2--------------2-------2-----------2-------2--|
D|------0------------------------------------------------------------------------------|
A|-------------------------2-----------------------------------------------------------|
E|--------------------------------------------------2----------------------0-----------|

Llevo un rostro que esconder y ..................
e|-----------------------------------------------------------------------------|
B|---------------2-------------------2--------------------2-----------------2--|
G|-----------2------2-----------2-------2------------2-----2----------2-----2--|
D|--------------------------------------------------0--------------------------|
A|-----------------------------------------------------------------------------|
E|-----2--------------------0----------------------------------------0---------|

Si no sabes que decir.................
         F(sostenido)                           E                         D                           E
e|------------------------------------------------------------------------------|
B|---------------2----------------------6-------------------6----------------6--|
G|----------2-------2-------------7-------7-----------7------7---------7-----7--|
D|----4----------------------///7 -------------------5------------------7-------|
A|------------------------------------------------------------------------------|
E|------------------------------------------------------------------------------|

GUITAR 2 Arreglo
e|------0------0--------0-------0-------0---------------------------------------------|
B|------2--3--2-----------------2--3---2---------3------------------------------------|
G|------------------2--------2----------------2----------2----------------------------|
D|------------------------------------------------------------------------------------|
A|------------------------------------------------------------------------------------|
E|------------------------------------------------------------------------------------|
            
Hard to play? Try these video lessons and learn fast. | Correct




comments powered by Disqus
↑ Back to top | Tablatures and chords are parodies/interpretations of the original songs. You may use it for private study, scholarship, research or language learning purposes only