» » »

Disidente, Decadencia Tabs (ver.1)

Artists:  A B C D E F G H I J K L M N O P Q R S T U V W X Y Z # 

Decadencia Tabs (ver.1)

Disidente Tabs
 Rating:
4.2/5 (5 votes)
Decadencia lessons Tabs too difficult? Try these video lessons and learn fast
1
                -------------------------------------------------------------------------------
-------------------------------------------------------------------------------

Tuning:Drop D (DADgbe)


Aqui va esta rola mi primer tab de este 2º material discográfico de Disidente
espero les agrade, ya saben cualquier comentario o duda o cualquier cosa ahi
esta mi mail. Saludos al gus! jaja

Intro
e|----------------------------------|
B|----------------------------------|
G|----------------------------------|
D|-------2-------2-------2----------| 
A|-4-2h4---4-2h4---4-2h4---4-2h4p4--|
E|----------------------------------|

La guitarra 2 toca estos acordes (Toca lo mismo durante el verso)
e|-----------------------|
B|-----------------------|
G|-666666666666666666-4--|
D|-666666666666666666-4--|
A|-444444444444444444-2--|
E|-----------------------|



Coro
e|-----------------------|
B|-----------------------|
G|----------4-666666666--|
D|-22222-2--4-666666666--|
A|-22222-2--2-444444444--|
E|-22222-2---------------|



Interlude/"Solo"
e|-----------------------------------|
B|-----------------------------------|
G|-11^12^---11^12^---11^12^--11^12^--| Esto va algo por el estilo 
D|-----------------------------------|  no necesariamente igual que aqui
A|-----------------------------------|
E|-----------------------------------|

e|------------------------------|
B|------------------------------|
G|---------4h6-------------4h6--| X 2
D|-2h4p2-----------2h4p2--------|
A|-------4-----2h4-------4------|
E|------------------------------|

Entra la guitarra 2 y toca varias veces
e|----|
B|----|
G|-6--|
D|-6--|
A|-4--|
E|----|

a la segunda vez que toca la guitarra ese acorde entra la guitarra 1
de nuevo y toca una clase de arpegio en esta escala:
(O sea pueden jugar con las notas que les pongo aqui en el orden que sea)
e|-12-14-15--------------------------|
B|----------12-14-15-----------------|
G|-------------------12-14-----------|
D|-------------------------12-14-16--|
A|-----------------------------------|
E|-----------------------------------|

La cancion termina con el intro mas guitarra 2:
e|--------------------------|
B|--------------------------|
G|-6---4--6---4--6---4--6*--|
D|-6---4--6---4--6---4--6*--|
A|-4---2--4---2--4---2--4*--|
E|--------------------------|

| *  let ring
| ^  bend
| /  slide up
| \  slide down
| h  hammer-on
| p  pull-off
| ~  vibrato
| +  harmonic
| x  Mute note
===============================================================================
            
Submit corrections

comments powered by Disqus
↑ Back to top | Disidente Tabs for Decadencia. Lyrics for acoustic guitar and electric guitar. 1 Tablatures and chords are parodies/interpretations of the original songs. You may use it for private study, scholarship, research or language learning purposes only