>
 >
Como Fue

Como Fue Guitar Tabs

Disidente - Como Fue chords, tabs, tablatures, lyrics

Guitar lessons | Add/correct | Request | Top 50 tabs Artists:  A B C D E F G H I J K L M N O P Q R S T U V W X Y Z 0-9

Como Fue Guitar Tabs – Disidente

CD, Sheet music, Poster

Do you like Como Fue? Share with your friends now
Tabs
-------------------------------------------------------------------------------
-------------------------------------------------------------------------------

Tuning: Half Step Down (Eb-Ab-Db-Gb-Bb-Eb)

Ahi les va una rola de Disidente del nuevo album Judas, espero y la disfruten
un saludo al buen gus XD


Main Riff
eb|--------------------------------------------------|
Bb|-----3-----3-----3-3-1-0-0-----3-----3-----3-0-0--|
Gb|---0-----0-----0-----------0-0---0-0---0-0--------|
Db|-2-----2-----2------------------------------------|
Ab|--------------------------------------------------|
Eb|--------------------------------------------------|



Eb		  Gb
Cada causa alguna vez
		     Eb
y entusiasmo que obtener
		  Gb
no es la gravedad

que te hace levitar

Eb		  Gb
Tuviste la intensión
	   Eb
de sorprender

no ha ocurrido
    Gb
y vuelve a suceder

Ab	Eb
Como fue?
Ab      Cb
Como fue?

Eb		  Gb
Aunque puedo leer
		   Eb
cuantas cartas rescate?
		Gb
y no resistes solo una vez
Eb		Gb
intentas resolver
	     Eb
ya sal de aquí
		  Gb
no ha ocurrido y vuelve a suceder

Ab	Eb
Como fue?
Ab      Cb
Como fue?

Ebm	     Cb
Antes, lo dejaste    ---------   \
Gb
te alejaste        -------------  | Coro*
Db
Como fue?, como fue? ----------- /

Eb		  Gb
Describe la impresión




Coro detalle (Estos son los acordes como se tocan)
eb|-------------------|
Bb|-------------------|
Gb|------5---------7--|
Db|-5----5----5----7--|
Ab|-7----3----5----5--|
Eb|-7---------3-------|

Final
eb|--------------------------------------------------------------------------|
Bb|-------------------------------------------------12-12-12-12-12-12-12-12--|
Gb|-12-12-12-12-12-12-12-12-12-12-12-12-12-12-12-12--------------------------|
Db|--------------------------------------------------------------------------|
Ab|--------------------------------------------------------------------------|
Eb|--------------------------------------------------------------------------|

eb|--------------------------------------------------------------------------|
Bb|-12-12-12-12-12-12-12-12--------------------------------------------------|
Gb|-------------------------14-14-14-14-14-14-14-14-14-14-14-14-14-14-14-14--|
Db|--------------------------------------------------------------------------|
Ab|--------------------------------------------------------------------------|
Eb|--------------------------------------------------------------------------|

eb|--------------------------------------------------------------------------|
Bb|-------------------12-12-------------------12-12-13-13-13-13-12-12--------|
Gb|-12-12-12-12-14-14-------12-12-12-12-14-14-------------------------12-12--|
Db|--------------------------------------------------------------------------|
Ab|--------------------------------------------------------------------------|
Eb|--------------------------------------------------------------------------|

eb|--------------------------|
Bb|-13-13-13-13-12-12--------|
Gb|-------------------12-12--|
Db|--------------------------|
Ab|--------------------------|
Eb|--------------------------|

eb|--------------------------------------------------------------------------|
Bb|-------------------12-12-------------------12-12--------------------------|
Gb|-12-12-12-12-14-14-------12-12-12-12-14-14-------11-11-11-11-12-12-14-14--|
Db|--------------------------------------------------------------------------|
Ab|--------------------------------------------------------------------------|
Eb|--------------------------------------------------------------------------|

eb|--------------------------|
Bb|--------------------------|
Gb|-11-11-11-11-12-12-14-14--|
Db|--------------------------|
Ab|--------------------------|
Eb|--------------------------|

eb|--------------------------------------------------------------------------|
Bb|-------------------------------------------------13-13-13-13-12-12--------|
Gb|-12-12-12-12-11-11-------12-12-12-12-11-11-------------------------12-12--|
Db|-------------------12-12-------------------12-12--------------------------|
Ab|--------------------------------------------------------------------------|
Eb|--------------------------------------------------------------------------|

eb|--------------------------|
Bb|-13-13-13-13-12-12--------|
Gb|-------------------12-12--|
Db|--------------------------|
Ab|--------------------------|
Eb|--------------------------|

eb|--------------------------------------------------------------------------|
Bb|-------------------12-12-------------------12-12--------------------------|
Gb|-12-12-12-12-14-14-------12-12-12-12-14-14-------11-11-11-11-12-12-14-14--|
Db|--------------------------------------------------------------------------|
Ab|--------------------------------------------------------------------------|
Eb|--------------------------------------------------------------------------|

eb|-------------------------------|
Bb|-------------------------------|
Gb|-11-11-11-11-12-12-14-14---12~-|
Db|-------------------------------|
Ab|-------------------------------|
Eb|-------------------------------|


| /  slide up
| \  slide down
| h  hammer-on
| p  pull-off
| ~  vibrato
| +  harmonic
| x  Mute note
===============================================================================





Comments


Popular Disidente tabs & chords
Ayer Chords
Decidir Chords
Albert Einstein Tabs
Atary Tabs
Ausente Tabs
Igual Que Tu Tabs
Monitor Tabs
Ayer Ukulele
Decidir Ukulele
El Rock Ha Muerto Ukulele


Song lyrics



↑ Back to top | Tablatures and chords are parodies/interpretations of the original songs. You may use it for private study, scholarship, research or language learning purposes only
© 2014 AZChords.com Contact us | Privacy policy | DMCA | Add/correct tabs | Request tabs | Top 50 tabs