» » »

Castration Rite Tabs (ver.1)

Artists:  A B C D E F G H I J K L M N O P Q R S T U V W X Y Z # 

Castration Rite Tabs (ver.1)

Discordance Axis
Rating:
0/5 (0 votes)

Hard to play? Try these video lessons and learn fast.
                                             'CASTRATION RITE' - Discordance Axis


Tuning: Dropped D


E|---------------------------------|---------------------------------|--------|
B|---------------------------------|---------------------------------|--------|
G|---------------------------------|-6---6---6---6---6---------------|-7-7-10-|
D|-------7-6-------------4-3-------|-------------------------7-6-----|-7-7-10-|
A|-7-5-8-5-4-5-4-7-4-2-5-2-1-2-1-4-|-4-0-4-0-4-0-4-0-4-0-7-5-5-4-5-4-|-6-6-9--|
D|-7-5-8-----5-4-7-4-2-5-----2-1-4-|---0---0---0---0---0-7-5-----5-4-|-5-5-8--|

|------------------------------|--------------------------|
|------------------------------|--------------------------|
|-4-7-6----------4-7-6---------|-4-7-6--------7-4-7-6---e-|
|------------------------------|--------5-4-7-7-4-7-6---t-|
|-2-5-4----------2-5-4---------|-2-5-4--5-4-7-5-2-5-4---c-|
|-------00000000-------0-0-0-0-|--------5-4-7-------------|

Listen tempo, song structure and timing from the album.




| /  slide up
| \  slide down
| h  hammer-on
| p  pull-off
| ~  vibrato
| +  harmonic
| x  Mute note
===============================================================================
            
Hard to play? Try these video lessons and learn fast. | Correct




comments powered by Disqus
↑ Back to top | Tablatures and chords are parodies/interpretations of the original songs. You may use it for private study, scholarship, research or language learning purposes only