>
 >
You Are The Dawn

You Are The Dawn Guitar Tabs

Disco Ensemble - You Are The Dawn chords, tabs, tablatures, lyrics

Guitar lessons | Add/correct | Request | Top 50 tabs Artists:  A B C D E F G H I J K L M N O P Q R S T U V W X Y Z 0-9

You Are The Dawn Guitar Tabs – Disco Ensemble

CD, Sheet music, Poster

Do you like You Are The Dawn? Share with your friends now
ChordsTabsUkulele
                                        DISCO ENSEMBLE: YOU ARE THE DAWN

Tuning: DADGBE

Tab made by Jussi/DISCO ENSEMBLE


Intro/Outro

--------------------------------|--------------------------------|--------------------------------|--------------|
--------------------------------|--------------------------------|--------------------------------|--------------|
-9------9------9------9-----|-9------9------9------9-----|--------------------------------|----------------------|
--------------------------------|--------------------------------|13----13----13----13----|13----13----13----13--|
11----11----11----11----|11----11----11----11----|11----11----11----11----|-9------9------9------9---------------|
11----11----11----11----|11----11----11----11----|-9------9------9------9-----|-9------9------9------9-----------|

----------------------------|----------------------------|----------------------------|-------------|
----------------------------|----------------------------|----------------------------|-------------|
9-----9-----9-----9-----|9-----9-----9-----9-----|----------------------------|---------------------|
7-----7-----7-----7-----|7-----7-----7-----7-----|----------------------------|6-----6-----9-----9--|
7-----7-----7-----7-----|7-----7-----7-----7-----|9-----9-----9-----9-----|6-----6-----9-----9------|
7-----7-----7-----7-----|7-----7-----7-----7-----|6-----6-----6-----6-----|6-----6-----9-----9------|

Verse

--------------------------------|----------------------------|-----------------------------|--|
--------------------------------|----------------------------|-----------------------------|--|
9--------------------------9--|-9---------------------9--|8---------------------------|-------|
-----------11-11------------|----------------------------|---------11-11-----------|7---------|x4
--------------------------------|----------------------------|------------------------11-|7---|
11-------11-11-------11-|11-------------------11-|9--------9---9--------7--|7-----------------|


--------------------------------|--------------------------------------|----------------------------|------------|
--------------------------------|--------------------------------------|----------------------------|------------|
9--------------------------9--|9--------------------------------9--|8--------------------------|-----------------|
-----------11-11------------|--------------------------------------|---------11-11----------|7-------------------|
--------------------------------|--------11-11-11-11-11------|-----------------------11-|7-----7--7--7--7--7--7--|
11-------11-11-------11-|11----11-11-11-11-11-11-|9--------9--9--------7--|7-----7--7--7--7--7--7----------------|

                                           PM____________                                
   PM________________
----------------------------|-------------------------------|--------------------------------|--|
----------------------------|-------------------------------|--------------------------------|--|
----------------------------|-------------------------------|--------------------------------|--|
9--------9--9--------9--|9-----------------------------|--------------------------------|-------|
9--------9--9--------9--|9-----9--9--9--9--9--9--|--------------------------------|-------------|
9--------9--9--------9--|9-----9--9--9--9--9--9--|7--7--7--7--7--7--7--7--|7--------------------|

Chorus

--------------------------------|--------------------------------|----------------------------|--------------------|
--------------------------------|---9--9--9--9--10-9--9--|----------------------------|----------------------------|
-9------9------9------9-----|---9--9--9--9---9--9--9--|9--------9--9--------9--|9--------9--9--------9-------------|
--------------------------------|--------------------------------|7--------7--7--------7--|7--------7--7--------7--|
11----11----11----11----|--------------------------------|7--------7--7--------7--|7--------7--7--------7----------|
11----11----11----11----|--------------------------------|7--------7--7--------7--|7--------7--7--------7----------|

--------------------------------|--------------------------------|----------------------------|------------|
--------------------------------|--------------------------------|----------------------------|------------|
11-------11-11-------11-|11-------11-11-------11-|----------------------------|----------------------------|
-9---------9---9---------9--|-9---------9---9---------9--|----------------------------|--------------------|
-9---------9---9---------9--|-9---------9---9---------9--|9--------9--7--------7--|6--------6--9--------9--|
-9---------9---9---------9--|-9---------9---9---------9--|6--------6--6--------6--|6--------6--9--------9--|

--------------------------------|--------------------------------|----------------------------|--------------------|
--------------------------------|---9--9--9--9--10-9--9--|----------------------------|----------------------------|
-9------9------9------9-----|---9--9--9--9---9--9--9--|9--------9--9--------9--|9--------9--9--------9-------------|
--------------------------------|--------------------------------|7--------7--7--------7--|7--------7--7--------7--|
11----11----11----11----|--------------------------------|7--------7--7--------7--|7--------7--7--------7----------|
11----11----11----11----|--------------------------------|7--------7--7--------7--|7--------7--7--------7----------|

--------------------------------|--------------------------------|----------------------------|--|
--------------------------------|--------------------------------|----------------------------|--|
11-------11-11-------11-|11-------11-11-------11-|----------------------------|------------------|
-9---------9---9---------9--|-9---------9---9---------9--|----------------------------|----------|
-9---------9---9---------9--|-9---------9---9---------9--|9--------9--7--------7--|6-------------|
-9---------9---9---------9--|-9---------9---9---------9--|6--------6--6--------6--|6-------------|


2. Chorus, 3rd round:

--------------------------------|------------------------------------|----------------------------|--------------------|
--------------------------------|---12-12-12-12-10-9--9--|----------------------------|--------------------------------|
--9-----9------9------9-----|----9---9---9---9---9--9--9--|9--------9--9--------9--|9--------9--9--------9-------------|
--------------------------------|------------------------------------|7--------7--7--------7--|7--------7--7--------7--|
11----11----11----11----|------------------------------------|7--------7--7--------7--|7--------7--7--------7----------|
11----11----11----11----|------------------------------------|7--------7--7--------7--|7--------7--7--------7----------|


3. chorus 3rd and 4th round:

--------------------------------|-----------------------------------|------------------------------|------------|
--------------------------------|---12-12-12-12-10-9-----|------------------------------|-----------------------|
-9------9------9------9-----|----9---9---9---9---9--9-----|------------------------------|----------------------|
--------------------------------|----9---9---9---9---9--9-----|------------------------------|------------------|
11----11----11----11----|-----------------------------------|11-------11-9--------9--|7--------7--9--------9----|
11----11----11----11----|-----------------------------------|-7---------7--7--------7--|7--------7--7--------7--|

-----------------------------|-----------------------------|----------------------------|--|
-----------------------------|-----------------------------|----------------------------|--|
-----------------------------|-----------------------------|----------------------------|--|
-----------------------------|-----------------------------|----------------------------|--|
11-------11-9--------9--|7--------7--9--------9--|9--------9--7--------7--|6---------------|
-9---------9--9--------9--|9--------9--9--------9--|6--------6--6--------6--|6-------------|


C-part
-----------------------------|-----------------------------|-----------------------------|-------------|
-----------------------------|-----------------------------|-----------------------------|-------------|
-----------------------------|-----------------------------|-----------------------------|-------------|
-----------2--2--2--------|---2--2--2--------2--2--|-----------6--6--6--------|---6--6--6--------6--6--|
4--4--4-----------4--4--|4-------------4--4--------|7--7--7-----------7--7--|7-------------7--7--------|
-----------------------------|-----------------------------|-----------------------------|-------------|

let ring

-----------------------------|------------------------------|-----------------------------|-------------|
-----------------------------|------------------------------|-----------------------------|-------------|
-----------------------------|------------------------------|-----------------------------|-------------|
-----------6--6--6--------|----7--7--7--------7--7--|-----------1--1--1--------|---1--1--1--1-h2--1-h2--|
0--0--0-----------0--0--|0--------------0--0--------|2--2--2-----------2--2--|2-------------------------|
-----------------------------|------------------------------|-----------------------------|-------------|


----------------------------|-----------------------------|-----------------------------|-------------|
----------------------------|-----------------------------|-----------------------------|-------------|
--------------------4--4--|4---------------------------|---------------------4--4--|4-----------------|
----------2--2--2--------|---2--2--2--------2--2--|-----------6--6--6--------|---6--6--6--------6--6--|
4--4--4------------------|---------------4--4--------|7--7--7-------------------|--------------7--7---|
----------------------------|-----------------------------|-----------------------------|-------------|

-----------------------------|--------------------------------|-----------------------------|-----------|
-----------------------------|--------------------------------|-----------------------------|-----------|
---------------------4--4--|4------------------------------|-----------------------------|--------------|
-----------6--6--6--------|----6--6--6--4--4--4--4--|-----------1--1--1--------|---1--1--1--1-h2--1-h2--|
0--0--0-------------------|--------------------------------|2--2--2-----------2--2--|2------------------|
-----------------------------|--------------------------------|-----------------------------|-----------|


Guitar solo
------------0--0--0----------|----0--0--0----------0--0--|------------0--0--0----------|----0--0--0----------0--0--|
0--0--0--5--5--5--0--0--|0--5--5--5--0--0--5--5--|0--0--0--9--9--9--0--0--|0--9--9--9--0--0--9--9------------------|
4--4--4--------------4--4--|4--------------4--4----------|8--8--8--------------8--8--|8--------------8--8----------|
--------------------------------|--------------------------------|--------------------------------|----------------|
--------------------------------|--------------------------------|--------------------------------|----------------|
--------------------------------|--------------------------------|--------------------------------|----------------|

------------0--0--0--0--0--|0--0--0--0--0--0--0--0--|------------0--0--0--0--0--|0--0----------------|
0--0--0--5--5--5--4--4--|4--2--2--2--0--0--2--2--|0--0--0--5--5--5--4--4--|4--4-b5-r4-b5-r4-b5-r4----|
2--2--2----------------------|--------------------------------|4--4--4----------------------|--------|
--------------------------------|--------------------------------|--------------------------------|--|
--------------------------------|--------------------------------|--------------------------------|--|
--------------------------------|--------------------------------|--------------------------------|--|

Breakdown verse
----------------------------------------|----------------------------------------|--------------------------------|--|
----------------------------------------|----------------------------------------|--------------------------------|--|
----------------------------------------|----------------------------------------|--------------------------------|--|
----------------------------------------|----------------------------------------|--------------------------------|--|
11-11-11-11-11-11-11-11-|11-11-11-11-11-11-11-11-|9--9--9--9--9--9--9--9--|7--7--7--7--7--7--7--7--------------------|
11-11-11-11-11-11-11-11-|11-11-11-11-11-11-11-11-|9--9--9--9--9--9--9--9--|7--7--7--7--7--7--7--7--------------------|

PM_______________________________________________________________________

--------------------------------|--------------------------------|--------------------------------|-------------|
--------------------------------|--------------------------------|--------------------------------|-------------|
--------------------------------|--------------------------------|--------------------------------|-------------|
--------------------------------|--------------------------------|7--7--7--7--7--7--7--7--|7--7--7--7--7--7--7--|
9--9--9--9--9--9--9--9--|9--9--9--9--9--9--9--9--|--------------------------------|-----------------------------|
9--9--9--9--9--9--9--9--|9--9--9--9--9--9--9--9--|7--7--7--7--7--7--7--7--|7--7--7--7--7--7--7------------------|

PM_______________________________________________





Comments


Popular Disco Ensemble tabs & chords
Drop Dead Casanova Bass Tabs
So Cold Bass Tabs
Fresh New Blood Tabs
Headphones Tabs
Headphones Intro Tabs
Human Cannonball Tabs
Magic Recoveries 1 Tabs
Sleep On The Wheel Tabs
This Is My Head Exploding Tabs
You Are The Dawn Ukulele


Song lyrics



↑ Back to top | Tablatures and chords are parodies/interpretations of the original songs. You may use it for private study, scholarship, research or language learning purposes only
© 2014 AZChords.com Contact us | Privacy policy | DMCA | Add/correct tabs | Request tabs | Top 50 tabs