» » »

Disco Ensemble, Worst Night Out Bass tabs (ver.1)

Artists:  A B C D E F G H I J K L M N O P Q R S T U V W X Y Z # 

Worst Night Out Bass tabs (ver.1)

Disco Ensemble Tabs
 Rating:
4/5 (4 votes)
Worst Night Out lessons Tabs too difficult? Try these video lessons and learn fast
1
                

DROP D tuning - DADG

Intro-Verse 1: (00.13)

G|------------------------------------------------------------| x2
D|------------------------------------------------------------|
A|--8~-------5~-----------------------------------------------|
D|------------------7~-----------3~-------0~-----7~-----------|

Pre-Verse:

G|-------------------------------------------| x2
D|-------------------------------------------|
A|-------------------------------------------|
D|--3-3-3---3-2-0~------7-7-7---7-7-7~-------|

Verse 2:

G|--------------------------------------------------------------------| x3
D|--------------------------------------------------------------------|
A|--8-8-8-8-8-8-8-5-5-5-5-5-5-5-5-5-----------------------------------| 
D|----------------------------------7-7-7-7-7-7-7-7-7-7-7-7-7-7-7-7---|

G|---------------------------------------------|
D|---------------------------------------------|
A|--8-8-8-8-8-8-8-5-5-5-5-5-5-5-5-5------------| 
D|----------------------------------7~---------|

Chorus 1:

G|-------------------------------------------| x2	G|----------------------------------------|
D|-------------------------------------------|   	D|----------------------------------------|
A|-------------------------------------------|   	A|----------------------------------------|
D|--3-3-3---3-2-0~------7-7-7---7-7-7~-------|   	D|--3-3-3---3-2-0~------7-7-7---7-7-5~----|

G|-------------------------------------------|
D|-------------------------------------------|
A|-------------------------------------------|
D|--3-3-3---3-2-0~------7-7-7---7-7-7~-------|

Verse 3:

G|-------------------------------------------------------------------------------|
D|------------10-10--------------------------------------------------------------|
A|--8-8-8-8-8--------------------------------------------------------------------|
D|------------------12-12-12-12-12-12-12-11-10-9-7-7-7-7-7-7-7-7-7-7-7-7-9-9-9---|

G|--------------------------------------------------------------------------------|
D|------------10-10---------------------------------------------------------------|
A|--8-8-8-8-8---------------------------------------------------------------------|
D|------------------12-12-12-12-12-12-12-13-14-14-7-7-7-7-7-7-7-9-9-9-9-9-9-9-9---|

G|--------------------------------------------------------------------|
D|--------------------------------------------------------------------|
A|--8-8-8-8-8-8-8-5-5-5-5-5-5-5-5-5-----------------------------------| 
D|----------------------------------7-7-7-7-7-7-7-7-7-7-7-7-7-7-7-7---|

G|---------------------------------------------|
D|----------------------------------7~---------|
A|--8-8-8-8-8-8-8-5-5-5-5-5-5-5-5-5------------| 
D|---------------------------------------------|

Chorus 2:

G|-------------------------------------------| x2 
D|-------------------------------------------|    
A|-------------------------------------------|    
D|--3-3-3---3-2-0~------7-7-7---7-7-7~-------|    

G|------------------------------------------------------------------|
D|------------------------------------------------------------------|
A|--8-8-8-8-8-8-7-5-5-5-5-5-5-5-5-5---------------------------------|
D|----------------------------------7-7-7---7~----5---5-5---5~------|

G|-------------------------------------------|
D|-------------------------------------------|
A|-------------------------------------------|
D|--3-3-3---3-2-0~------7-7-7---7-7-7~-------|

Bridge-Guitar solo:

G|----------------------------------------------------------------------------| x3
D|----------------------------------------------------------------------------|
A|--------------------------7-7-7-7-7-7-7-7-7---------------------------------|
D|--10-10-10-10-10-10-10-10-------------------7-7-7-7-7-7-7-7-7-7-7-7-7-7-7---| 

G|-------------------------------------------------------|
D|-------------------------------------------------------|
A|--------------------------7-7-7-7-7-7-7-7-7------------|
D|--10-10-10-10-10-10-10-10-------------------7~---------|

Interlude:

G|---------------------------------------------------------------------------------|x4 |---------|
D|---------------------------------------------------------------------------------|   |---------|
A|-10-10-10-10-10-10-10-10-10-10-10-10-10-10-10-10-8-8-8-8-8-8-8-8-8-8-8-8-8-8-8-8-|   |---------|
D|---------------------------------------------------------------------------------|   |--7~~----|

Last Chorus:

G|--------------------------------------------------------------------| x2
D|--------------------------------------------------------------------|
A|--------------------------------------------------------------------|
D|--3-3-3-3-3-3-3-0-0-0-0-0-0-0-0-0-7-7-7-7-7-7-7-7-7-7-7-7-7-7-7-7---|

G|-----------------------------------------------------------------------------|
D|----------------------------------7-7-7-7-7-7-9------------------------------|
A|--8-8-8-8-8-8-7-5-5-5-5-5-5-5-5-5---------------10-10-10-10-10-10-10-10-10---|
D|-----------------------------------------------------------------------------|

G|-------------------------------------------|
D|-------------------------------------------|
A|-------------------------------------------|
D|--3-3-3---3-2-0~------7-7-7---7-7-7~-------|

Outro:

G|-------------------------------------------------------------------|
D|-------------------------------------------------------------------|
A|-------------------------------------------------------------------|
D|--3~---------0~-----------3~---------0~---------------7~~----------|
            
Submit corrections

comments powered by Disqus
↑ Back to top | Disco Ensemble Bass for Worst Night Out. Lyrics for acoustic guitar and electric guitar. 1 Tablatures and chords are parodies/interpretations of the original songs. You may use it for private study, scholarship, research or language learning purposes only