» » »

Disco Ensemble, White Flag For Peace Bass tabs (ver.1)

Artists:  A B C D E F G H I J K L M N O P Q R S T U V W X Y Z # 

White Flag For Peace Bass tabs (ver.1)

Disco Ensemble Tabs
 Rating:
4/5 (4 votes)
White Flag For Peace lessons Tabs too difficult? Try these video lessons and learn fast
                
Tuning: Drop D (DADG)

the single was released.

Intro:
|--------------------------------------------|
|--------------------------------------------|
|--8~---10~---0~---3~----8~---10~---0~-------|
|--------------------------------------------|

1st Chorus
|---------------------------------------------------------------------------|
|----------------------------------------------------------5-55-55-5-55-55--|
|--5--5--5-5--5--5-0--0--0-0--0--0-3-33-33-3-33-33-3-3-3-3------------------|
|---------------------------------------------------------------------------|

Verse

16th notes - fast picking
|--------------------------------------|
|--------------------------------------|
|--8-(x16)-12-(x16)-15-(x16)-10-(x16)--|
|--------------------------------------| x2

|--------------------------------------|
|--------------------------------------|
|--8-(x16)-10-(x16)-12-(x16)-15-(x16)--|
|--------------------------------------|

|----------------------------------------------|
|----------------------------------------------|
|--8-(x16)-10-(x16)-12-(x16)-15-(x8)-xxxx------|
|-----------------------------------------0~---|

Chorus
|---------------------------------------------------------------------------|
|----------------------------------------------------------5-55-55-5-55-55--|
|--5--5--5-5--5--5-0--0--0-0--0--0-3-33-33-3-33-33-3-3-3-3------------------|
|---------------------------------------------------------------------------| x2

|----------------------------------------------------------------|
|------------------5-55-55-5-55-55--------------5-55-55-5-55-55--|
|--8-88-88-8-88-88-----------------3-33-33-3-33------------------|
|----------------------------------------------------------------|

|-------------------------------------------|
|------------------5-55-55-5-55-55----------|
|--8-88-88-8-88-88-----------------3~-------|
|-------------------------------------------|

Gtr Solo
|----------------------------------------------|
|----------------------------------------------|
|--5----------------2---3----------3-----------|
|-----------------------------5----------------|

16th notes - fast picking
|--------------------------------------|
|--------------------------------------|
|--5-(x16)-12-(x16)-15-(x16)-10-(x16)--|
|--------------------------------------|

|----------------------------------------------|
|----------------------------------------------|
|--5-(x16)-12-(x16)-15-(x16)-10-(x8)-xxxx------|
|-----------------------------------------0~---|

Chorus
|---------------------------------------------------------------------------|
|----------------------------------------------------------5-55-55-5-55-55--|
|--5--5--5-5--5--5-0--0--0-0--0--0-3-33-33-3-33-33-3-3-3-3------------------|
|---------------------------------------------------------------------------| x2

|----------------------------------------------------------------|
|------------------5-55-55-5-55-55--------------5-55-55-5-55-55--|
|--8-88-88-8-88-88-----------------3-33-33-3-33------------------|
|----------------------------------------------------------------|

|-----------------------------------------------------|
|------------------5-55-55-5-55-55--------------------|
|--8-88-88-8-88-88-----------------3--3--3----5--5----|
|-----------------------------------------------------|
            
Submit corrections

comments powered by Disqus
↑ Back to top | Disco Ensemble Bass for White Flag For Peace. Lyrics for acoustic guitar and electric guitar. Tablatures and chords are parodies/interpretations of the original songs. You may use it for private study, scholarship, research or language learning purposes only