» » »

Disco Ensemble, We Might Fall Apart Tabs (ver.1)

Artists:  A B C D E F G H I J K L M N O P Q R S T U V W X Y Z # 

We Might Fall Apart Tabs (ver.1)

Disco Ensemble Tabs
 Rating:
4.6/5 (9 votes)
We Might Fall Apart lessons Tabs too difficult? Try these video lessons and learn fast
1
                                        DISCO ENSEMBLE: WE MIGHT FALL APART

tuning: DADGBE

Intro/chorus
------------------------|------------------------|------------------------|------------------------|
------------------------|------------------------|7--7--7-----7--7-----9--|---9--9-----9--9--9-----|
8--8--8--8--8--8--8--8--|8--8--8--8--8--8--8--8--|------------------------|------------------------|
8--8--8-----8--8-----8--|---8--8-----8--8--8-----|8--8--8--8--8--8--8--8--|8--8--8--8--8--8--8--8--|
6--6--6--6--6--6--6--6--|6--6--6--6--6--6--6--6--|6--6--6--6--6--6--6--6--|6--6--6--6--6--6--6--6--|
------------------------|------------------------|------------------------|------------------------|

------------------------|------------------------|------------------------|------------------------|
------------------------|------------------------|------------------------|------------------------|
------------------------|------------------------|8--8--8-----8--8-----10-|---10-10----10-10-10----|
11-11-11----11-11----11-|---11-11----11-11-11----|------------------------|------------------------|
8--8--8--8--8--8--8--8--|8--8--8--8--8--8--8--8--|8--8--8--8--8--8--8--8--|8--8--8--8--8--8--8--8--|
8--8--8--8--8--8--8--8--|8--8--8--8--8--8--8--8--|8--8--8--8--8--8--8--8--|8--8--8--8--8--8--8--8--|


Verse
------------------------|------------------------|------------------------|------------------------|
------------------------|------------------------|7--7--7-----7--7-----9--|---9--9-----9--9--9-----|
8--8--8-----8--8-----8--|---8--8-----8--8--8-----|6--6--6-----6--6-----6--|---6--6-----6--6--6-----|
8--8--8-----8--8-----8--|---8--8-----8--8--8-----|8--8--8-----8--8-----8--|---8--8-----8--8--8-----|
6--6--6-----6--6-----6--|---6--6-----6--6--6-----|6--6--6-----6--6-----6--|---6--6-----6--6--6-----|
------------------------|------------------------|------------------------|------------------------|

------------------------|------------------------|------------------------|------------------------|
------------------------|------------------------|------------------------|------------------------|
------------------------|------------------------|8--8--8-----8--8-----10-|---10-10----10-10-10----|
11-11-11----11-11----11-|---11-11----11-11-11----|------------------------|------------------------|
8--8--8-----8--8-----8--|---8--8-----8--8--8-----|8--8--8-----8--8-----8--|---8--8-----8--8--8-----|
8--8--8-----8--8-----8--|---8--8-----8--8--8-----|8--8--8-----8--8-----8--|---8--8-----8--8--8-----|

Pre-chorus
------------------------|------------------------|------------------------|------------------------|
------------------------|------------------------|------------------------|------------------------|
11-11-11-11-11-11-11-11-|11-11-11-11-11-11-11-11-|13-13-13-13-13-13-13-13-|13-13-13-13-13-13-13-13-|
------------------------|------------------------|------------------------|------------------------|
9--9--9--9--9--9--9--9--|9--9--9--9--9--9--9--9--|11-11-11-11-11-11-11-11-|11-11-11-11-11-11-11-11-|
------------------------|------------------------|------------------------|------------------------|

------------------------|------------------------|------------------------|------------------------|
------------------------|------------------------|------------------------|------------------------|
11-11-11-11-11-11-11-11-|11-11-11-11-11-11-11-11-|6--6--6--6--6--6--6--6--|6--6--6--6--6--6--------|
------------------------|------------------------|6--6--6--6--6--6--6--6--|6--6--6--6--6--6--------|
9--9--9--9--9--9--9--9--|9--9--9--9--9--9--9--9--|4--4--4--4--4--4--4--4--|4--4--4--4--4--4--------|
------------------------|------------------------|------------------------|------------------------|
                                                  PM__________________________________

Guitar solo
------------------------|------------------------|------------------------|------------------------|
17----------17----------|17----------17----------|19----------19----------|19----------19----------|
------16----------16----|------16----------16----|------16----------16----|------16----------16----|
---14----14----14----14-|---14----14----14----14-|---13----13----13----13-|---13----13----13----13-|
------------------------|------------------------|------------------------|------------------------|
------------------------|------------------------|------------------------|------------------------|

------------------------|------------------------|------------------------|------------------------|
------------------------|------------------------|------------------------|------------------------|
19----16----19----16----|19----16----19----16----|19-------16-------19----|---16-------16----16----|
---13----13----13----13-|---13----13----13----13-|---14-14----14-14----14-|14----14-14----14-------|
------------------------|------------------------|------------------------|------------------------|
------------------------|------------------------|------------------------|------------------------|


BRIDGE
------------------------|------------------------|------------------------|------------------------|
------------------------|------------------------|------------------------|------------------------|
------------------------|------------------------|------------------------|------------------------|
------------------------|------------------------|------------------------|------------------------|
------------------------|------------------------|------------------------|------------------------|
9--9--9--9--9--9--9--9--|9--9--9--9--9--9--9--9--|11-11-11-11-11-11-11-11-|11-11-11-11-11-11-11-11-|


------------------------|------------------------|------------------------|------------------------|
------------------------|------------------------|------------------------|------------------------|
------------------------|------------------------|------------------------|------------------------|
------------------------|------------------------|------------------------|------------------------|
------------------------|------------------------|------------------------|------------9--9--9--9--|
8--8--8--8--8--8--8--8--|8--8--8--8--8--8--8--8--|9--9--9--9--9--9--9--9--|9--9--9--9--------------|

------------------------|------------------------|------------------------|------------------------|
------------------------|------------------------|------------------------|------------------------|
------------------------|------------------------|------------------------|------------------------|
9--9--9--9--9--9--9--9--|9--9--9--9--9--9--9--9--|11-11-11-11-11-11-11-11-|11-11-11-11-11-11-11-11-|
9--9--9--9--9--9--9--9--|9--9--9--9--9--9--9--9--|11-11-11-11-11-11-11-11-|11-11-11-11-11-11-11-11-|
9--9--9--9--9--9--9--9--|9--9--9--9--9--9--9--9--|11-11-11-11-11-11-11-11-|11-11-11-11-11-11-11-11-|
PM___________________________________________     PM___________________________________________

------------------------|------------------------|------------------------|------------------------|
------------------------|------------------------|------------------------|------------------------|
------------------------|------------------------|------------------------|------------------------|
11-11-11-11-11-11-11-11-|11-11-11-11-11-11-11-11-|9--9--9--9--9--9--9--9--|9-/11-11-11-11-11-11-11-|
8--8--8--8--8--8--8--8--|8--8--8--8--8--8--8--8--|9--9--9--9--9--9--9--9--|9-/11-11-11-11-11-11-11-|
8--8--8--8--8--8--8--8--|8--8--8--8--8--8--8--8--|9--9--9--9--9--9--9--9--|9-/11-11-11-11-11-11-11-|
PM___________________________________________     ___________________________________


synth solo
------------------------|------------------------|------------------------|------------------------|
------------------------|------------------------|------------------------|------------------------|
------------------------|------------------------|------------------------|------------------------|
13--------\-------------|------------------------|------------------------|------------------------|
13--------\-------------|------------------------|------------------------|------------------------|
13--------\-------------|------------------------|------------------------|------------------------|


under synth solo
------------------------|------------------------|------------------------|------------------------|
------------------------|------------------------|7--7--7--7--7--7--7--7--|9--9--9--9--9--9--9--9--|
8--8--8--8--8--8--8--8--|8--8--8--8--8--8--8--8--|------------------------|------------------------|
8--8--8--8--8--8--8--8--|8--8--8--8--8--8--8--8--|8--8--8--8--8--8--8--8--|8--8--8--8--8--8--8--8--|
6--6--6--6--6--6--6--6--|6--6--6--6--6--6--6--6--|6--6--6--6--6--6--6--6--|6--6--6--6--6--6--6--6--|
------------------------|------------------------|------------------------|------------------------|
PM_________________________________________________________________________________________________

------------------------|------------------------|------------------------|------------------------|
------------------------|------------------------|------------------------|------------------------|
------------------------|------------------------|------------------------|------------------------|
11-11-11-11-11-11-11-11-|11-11-11-11-11-11-11-11-|8--8--8--8--8--8--8--8--|8-/11-11-11-11-11-11-11-|
8--8--8--8--8--8--8--8--|8--8--8--8--8--8--8--8--|8--8--8--8--8--8--8--8--|8-/11-11-11-11-11-11-11-|
8--8--8--8--8--8--8--8--|8--8--8--8--8--8--8--8--|8--8--8--8--8--8--8--8--|8-/11-11-11-11-11-11-11-|
PM_____________________________________________________________________________________

Start of last chorus
------------------------|------------------------|------------------------|------------------------|
------------------------|------------------------|------------------------|------------------------|
------------------------|------------------------|------------------------|------------------------|
13--------\-------------|------------------------|------------------------|------------------------|
13--------\-------------|------------------------|------------------------|------------------------|
13--------\-------------|------------------------|------------------------|------------------------|


------------------------|------------------------|------------------------|------------------------|
------------------------|------------------------|------------------------|------------------------|
------------------------|------------------------|8--8--8-----8--8-----10-|---10-10----10-10-10----|
11-11-11----11-11----11-|---11-11----11-11-11----|------------------------|------------------------|
8--8--8--8--8--8--8--8--|8--8--8--8--8--8--8--8--|8--8--8--8--8--8--8--8--|8--8--8--8--8--8--8--8--|
8--8--8--8--8--8--8--8--|8--8--8--8--8--8--8--8--|8--8--8--8--8--8--8--8--|8--8--8--8--8--8--8--8--|


OUTRO
------------------------|------------------------|------------------------|------------------------|
------------------------|------------------------|------------------------|------------------------|
11-11-11----11-11-11----|11-11-11----11-11-11----|13-13-13----13-13-13----|13-13-13----13-13-13----|
9--9--9-----9--9--9-----|9--9--9-----9--9--9-----|11-11-11----11-11-11----|11-11-11----11-11-11----|
------------------------|------------------------|------------------------|------------------------|
9--9--9-----9--9--9-----|9--9--9-----9--9--9-----|11-11-11----11-11-11----|11-11-11----11-11-11----|

------------------------|------------------------|------------------------|------------------------|
------------------------|------------------------|------------------------|------------------------|
10-10-10----10-10-10----|10-10-10----10-10-10----|11-11-11----11-11-11----|11-11-11----11-11-11----|
8--8--8-----8--8--8-----|8--8--8-----8--8--8-----|9--9--9-----9--9--9-----|9--9--9-----9--9--9-----|
------------------------|------------------------|------------------------|------------------------|
8--8--8-----8--8--8-----|8--8--8-----8--8--8-----|9--9--9-----9--9--9-----|9--9--9-----9--9--9-----|


------------------------|------------------------|------------------------|------------------------|
------------------------|------------------------|------------------------|------------------------|
11-11-11----11-11-11----|11-11-11----11-11-11----|13-13-13----13-13-13----|13-13-13----13-13-13----|
------9-----------9-----|------9-----------9-----|------11----------11----|------11----------11----|
------------------------|------------------------|------------------------|------------------------|
9--9--9-----9--9--9-----|9--9--9-----9--9--9-----|11-11-11----11-11-11----|11-11-11----11-11-11----|

------------------------|------------------------|------------------------|------------------------|
------------------------|------------------------|------------------------|------------------------|
10-10-10----10-10-10----|10-10-10----10-10-10----|11-11-11----11-11-11----|11/13-13-13-13-13-13-13-|
------8-----------8-----|------8-----------8-----|------9-----------9-----|9-/11-11-11-11-11-11-11-|
------------------------|------------------------|------------------------|9-/11-11-11-11-11-11-11-|
8--8--8-----8--8--8-----|8--8--8-----8--8--8-----|9--9--9-----9--9--9-----|9-/11-11-11-11-11-11-11-|
                                                                           rit.

------------------------|
2-----------------------|
------------------------|
3-----------------------|
1-----------------------|
1-----------------------|

ENJOI!!
f**kin amazing band!
If you get the chance, go see them!
            
Submit corrections

comments powered by Disqus
↑ Back to top | Disco Ensemble Tabs for We Might Fall Apart. Lyrics for acoustic guitar and electric guitar. 1 Tablatures and chords are parodies/interpretations of the original songs. You may use it for private study, scholarship, research or language learning purposes only