>
 >
This Is My Head Exploding

This Is My Head Exploding Guitar Tabs

Disco Ensemble - This Is My Head Exploding chords, tabs, tablatures, lyrics

Guitar lessons | Add/correct | Request | Top 50 tabs Artists:  A B C D E F G H I J K L M N O P Q R S T U V W X Y Z 0-9

This Is My Head Exploding Guitar Tabs – Disco Ensemble

CD, Sheet music, Poster

Do you like This Is My Head Exploding? Share with your friends now
Tabs
                        DISCO ENSEMBLE: THIS IS MY HEAD EXPLODING

tuning: DADGBE


Intro/postchorus
----------------|----------------|
----------------|8-8-8-8-8-8-8-8-|
----------------|----------------|
4-4-4-4-4-4-4-4-|----------------|
4-4-4-4-4-4-4-4-|----------------|
4-4-4-4-4-4-4-4-|----------------|
                 ring modulator__


1.verse (P.M all the way)
----------------|----------------|----------------|----------------|
----------------|----------------|----------------|----------------|
----------------|----------------|----------------|----------------|
7-7-7-7-7-7-7-7-|7-7-7-7-7-7-7-7-|----------------|----------------|
5-5-5-5-5-5-5-5-|5-5-5-5-5-5-5-5-|4-4-4-4-4-4-4-4-|4-4-7-7-7-7-7-7-|
----------------|----------------|4-4-4-4-4-4-4-4-|4-4-7-7-7-7-7-7-|


----------------|----------------|----------------|----------------|
----------------|----------------|----------------|----------------|
----------------|----------------|----------------|----------------|
7-7-7-7-7-7-7-7-|7-7-7-7-7-7-7-7-|----------------|----------------|
5-5-5-5-5-5-5-5-|5-5-5-5-5-5-5-5-|----------------|----------------|
----------------|----------------|4-4-4-4-6-6-6-6-|7-7-7-7-9-9-9-9-|

----------------|----------------|----------------|----------------|
----------------|----------------|----------------|----------------|
7-7-7-7-7-7-7-7-|6-6-6-6-6-6-6-6-|2-2-2-2-2-2-2-2-|4-4-4-4-2-2-2-2-|
0-0-0-0-0-0-0-0-|0-0-0-0-0-0-0-0-|4-4-4-4-4-4-4-4-|4-4-4-4-4-4-4-4-|
----------------|----------------|----------------|----------------|
----------------|----------------|----------------|----------------|


----------------|----------------|----------------|----------------|
----------------|----------------|----------------|----------------|
2-2-2-2-2-2-2-2-|1-1-1-1-1-1-1-1-|6---------------|----------------|
0-0-0-0-0-0-0-0-|0-0-0-0-0-0-0-0-|7---------------|----------------|
----------------|----------------|4---------------|----------------|
----------------|----------------|4---------------|----------------|


chorus
------------------------|------------------------|----------------|----------------|
------------------------|------------------------|----------------|----------------|
11-11-11-11-11-11-11-11-|11-11-11-11-11-11-11-11-|9-9-9-9-9-9-9-9-|9-9-9-9-9-9-9-9-|
11-11-11-11-11-11-11-11-|11-11-11-11-11-11-11-11-|9-9-9-9-9-9-9-9-|9-9-9-9-9-9-9-9-|
9--9--9--9--9--9--9--9--|9--9--9--9--9--9--9--9--|7-7-7-7-7-7-7-7-|7-7-7-7-7-7-7-7-|
------------------------|------------------------|----------------|----------------|

----------------|----------------|----------------|----------------|
----------------|----------------|----------------|----------------|
7-7-7-7-7-7-7-7-|6-6-6-6-6-6-6-6-|9-----9-----9---|11--------------|
7-7-7-7-7-7-7-7-|7-7-7-7-7-7-7-7-|7-----7-----7---|9-----10----11--|
5-5-5-5-5-5-5-5-|5-5-5-5-5-5-5-5-|7-----7-----7---|9-----9-----9---|
----------------|----------------|7-----7-----7---|9-----9-----9---|

------------------------|------------------------|----------------|----------------|
------------------------|------------------------|----------------|----------------|
11-11-11-11-11-11-11-11-|11-11-11-11-11-11-11-11-|9-9-9-9-9-9-9-9-|9-9-9-9-9-9-9-9-|
11-11-11-11-11-11-11-11-|11-11-11-11-11-11-11-11-|9-9-9-9-9-9-9-9-|9-9-9-9-9-9-9-9-|
9--9--9--9--9--9--9--9--|9--9--9--9--9--9--9--9--|7-7-7-7-7-7-7-7-|7-7-7-7-7-7-7-7-|
------------------------|------------------------|----------------|----------------|


----------------|----------------|----------------|----------------|
----------------|----------------|----------------|----------------|
7-7-7-7-7-7-7-7-|6-6-6-6-6-6-6-6-|9-----9-----9---|----------------|
7-7-7-7-7-7-7-7-|7-7-7-7-7-7-7-7-|7-----7-----7---|9-----9-----9---|
5-5-5-5-5-5-5-5-|5-5-5-5-5-5-5-5-|7-----7-----7---|7-----7-----7---|
----------------|----------------|7-----7-----7---|6-----6-----6---|


Last row of the 2nd ja 3rd chorus
----------------|----------------|----------------|----------------|
----------------|----------------|----------------|----------------|
7-7-7-7-7-7-7-7-|9-9-9-9-9-9-9-9-|----------------|----------------|
7-7-7-7-7-7-7-7-|7-7-7-7-7-7-7-7-|----------------|----------------|
5-5-5-5-5-5-5-5-|5-5-5-5-5-5-5-5-|----------------|----------------|
----------------|----------------|----------------|----------------|

2.verse

----------------|----------------|----------------|----------------|
----------------|----------------|----------------|----------------|
----------------|----------------|----------------|----------------|
7-7-7-7-7-7-7-7-|7-7-7-7-7-7-7-7-|----------------|----------------|
5-5-5-5-5-5-5-5-|5-5-5-5-5-5-5-5-|4-4-4-4-4-4-4-4-|4-4-7-7-7-7-7-7-|
----------------|----------------|4-4-4-4-4-4-4-4-|4-4-7-7-7-7-7-7-|


----------------|----------------|----------------|----------------|
----------------|----------------|----------------|----------------|
----------------|----------------|----------------|----------------|
7-7-7-7-7-7-7-7-|6-6-6-6-6-6-6-6-|----------------|----------------|
5-5-5-5-5-5-5-5-|5-5-5-5-5-5-5-5-|----------------|----------------|
----------------|----------------|4-4-4-4-6-6-6-6-|7-7-7-7-9-9-9-9-|

----------------|----------------|----------------|----------------|
----------------|----------------|----------------|----------------|
7-7-7-7-7-7-7-7-|9-9-9-9-9-9-9-9-|6-6-6-6-6-6-6-6-|4-4-4-4-4-4-4-4-|
0-0-0-0-0-0-0-0-|0-0-0-0-0-0-0-0-|4-4-4-4-4-4-4-4-|4-4-4-4-4-4-4-4-|
----------------|----------------|----------------|----------------|
----------------|----------------|----------------|----------------|


----------------|----------------|----------------|----------------|
----------------|----------------|----------------|----------------|
2-2-2-2-2-2-2-2-|1-1-1-1-1-1-1-1-|6---------------|----------------|
0-0-0-0-0-0-0-0-|0-0-0-0-0-0-0-0-|7---------------|----------------|
----------------|----------------|4---------------|----------------|
----------------|----------------|4---------------|----------------|


C-part (8-notes)
----------------|----------------|----------------|----------------|
10--------------|12------9-------|10--------------|12------9-------|
----------------|----------------|----------------|----------------|
7---------------|9-------6-------|7---------------|9-------6-------|
----------------|----------------|----------------|----------------|
----------------|----------------|----------------|----------------|


----------------|----------------|----------------|----------------|
9---------------|10------12------|12--------------|10------9-------|
----------------|----------------|----------------|----------------|
6---------------|7-------9-------|9---------------|7-------6-------|
----------------|----------------|----------------|----------------|
----------------|----------------|----------------|----------------|

----------------|----------------|----------------|----------------|
10--------------|12------9-------|10--------------|14------12------|
----------------|----------------|----------------|----------------|
7---------------|9-------6-------|7---------------|11------9-------|
----------------|----------------|----------------|----------------|
----------------|----------------|----------------|----------------|

----------------|----------------|----------------|----------------|
9---------------|10------12------|10--------------|----------------|
----------------|----------------|----------------|9---------------|
6---------------|7-------9-------|7---------------|6---------------|
----------------|----------------|----------------|----------------|
----------------|----------------|----------------|----------------|

C-part (when vocals come in)
----------------|----------------|----------------|----------------|
----------------|----------------|----------------|----------------|
----------------|----------------|----------------|----------------|
4---------------|----------------|7---------------|----------------|
----------------|----------------|----------------|----------------|
4---------------|----------------|7---------------|----------------|

----------------|----------------|----------------|----------------|
----------------|----------------|----------------|----------------|
9---------------|----------------|7---------------|----------------|
----------------|----------------|----------------|----------------|
7---------------|----------------|5---------------|----------------|
----------------|----------------|----------------|----------------|

----------------|----------------|----------------|----------------|
----------------|----------------|----------------|----------------|
----------------|----------------|----------------|----------------|
4---------------|----------------|7---------------|----------------|
----------------|----------------|----------------|----------------|
4---------------|----------------|7---------------|----------------|

----------------|----------------|----------------|----------------|
----------------|----------------|----------------|----------------|
9---------------|----------------|----------------|----------------|
----------------|----------------|7-7-7-7-7-7-7-7-|7-7-7-7-7-7-7-7-|
7---------------|----------------|5-5-5-5-5-5-5-5-|5-5-5-5-5-5-5-5-|
----------------|----------------|----------------|----------------|

----------------|----------------|
----------------|----------------|
----------------|----------------|
----------------|----------------|
5-5-5-4-4-4-2-2-|4-4-4-2-2-2-0-0-|
----------------|----------------|

3.Pre-Chorus
----------------|----------------|----------------|----------------|
----------------|----------------|----------------|----------------|
----------------|----------------|----------------|----------------|
0---------------|----------------|----------------|----------------|
0---------------|----------------|4-4-4-4-4-4-4-4-|4-4-4-4-4-4-4-4-|
0---------------|----------------|4-4-4-4-4-4-4-4-|4-4-4-4-4-4-4-4-|

----------------|----------------|----------------|----------------|
----------------|----------------|----------------|----------------|
----------------|----------------|----------------|----------------|
7-7-7-7-7-7-7-7-|7-7-7-7-7-7-7-7-|----------------|----------------|
5-5-5-5-5-5-5-5-|5-5-5-5-5-5-5-5-|----------------|----------------|
----------------|----------------|4-4-4-4-6-6-6-6-|7-7-7-7-9-9-9-9-|

----------------|----------------|----------------|----------------|
----------------|----------------|----------------|----------------|
7-7-7-7-7-7-7-7-|6-6-6-6-6-6-6-6-|2-2-2-2-2-2-2-2-|4-4-4-4-2-2-2-2-|
0-0-0-0-0-0-0-0-|0-0-0-0-0-0-0-0-|4-4-4-4-4-4-4-4-|4-4-4-4-4-4-4-4-|
----------------|----------------|----------------|----------------|
----------------|----------------|----------------|----------------|


----------------|----------------|----------------|----------------|
----------------|----------------|----------------|----------------|
2-2-2-2-2-2-2-2-|1-1-1-1-1-1-1-1-|6---------------|----------------|
0-0-0-0-0-0-0-0-|0-0-0-0-0-0-0-0-|7---------------|----------------|
----------------|----------------|4---------------|----------------|
----------------|----------------|4---------------|----------------|

C-part/outro
----------------|----------------|----------------|----------------|
10--------------|12------9-------|10--------------|14------12------|
----------------|----------------|----------------|----------------|
7---------------|9-------6-------|7---------------|11------9-------|
----------------|----------------|----------------|----------------|
----------------|----------------|----------------|----------------|

----------------|----------------|----------------|----------------|
9---------------|10------12------|10--------------|----------------|
----------------|----------------|----------------|9---------------|
6---------------|7-------9-------|7---------------|6---------------|
----------------|----------------|----------------|----------------|
----------------|----------------|----------------|----------------|

9---------------|12--------------|9---------------|12--------------|
----------------|--------9-------|----------------|--------9-------|
6---------------|9---------------|6---------------|9---------------|
----------------|--------6-------|----------------|--------6-------|
----------------|----------------|----------------|----------------|
----------------|----------------|----------------|----------------|

----------------|----------------|----------------|----------------|
12--------------|14------10------|10--------------|----------------|
----------------|----------------|----------------|9---------------|
9---------------|11------7-------|7---------------|6---------------|
----------------|----------------|----------------|----------------|
----------------|----------------|----------------|----------------|

----------------|
----------------|
9---------------|
6---------------|
----------------|
----------------|





Comments


Popular Disco Ensemble tabs & chords
Second Soul Bass Tabs
Sleep On The Wheel Bass Tabs
Protector Chords
Second Soul Chords
You Are The Dawn Chords
Drop Dead Casanova Tabs
First Aid Kit 1 Tabs
Headphones Intro Tabs
Magic Recoveries 1 Tabs
See If I Care Tabs


Song lyrics



↑ Back to top | Tablatures and chords are parodies/interpretations of the original songs. You may use it for private study, scholarship, research or language learning purposes only
© 2014 AZChords.com Contact us | Privacy policy | DMCA | Add/correct tabs | Request tabs | Top 50 tabs