>
 >
So Long, Sisters

So Long, Sisters Guitar Tabs

Disco Ensemble - So Long, Sisters chords, tabs, tablatures, lyrics

Guitar lessons | Add/correct | Request | Top 50 tabs Artists:  A B C D E F G H I J K L M N O P Q R S T U V W X Y Z 0-9

So Long, Sisters Guitar Tabs – Disco Ensemble

CD, Sheet music, Poster

Do you like So Long, Sisters? Share with your friends now
Tabs
					DISCO ENSEMBLE: SO LONG, SISTERS

tuning: DADGBE

Intro/Post-chorus/C-part/Outro
------------------------|------------------------|------------------------|------------------------|
------------------------|------------------------|------------------------|------------------------|
------5-----7--------5--|---7--------------------|------5-----7--------5--|---7--------------------|
------------------------|------------7-----7--7--|------------------------|------------7-----7--7--|
5--5-----5-----5--5-----|5-----5--5-----5--------|5--5-----5-----5--5-----|5-----5--5-----5--------|
------------------------|------------------------|------------------------|------------------------|

------------------------|------------------------|------------------------|------------------------|
------------------------|------------------------|------------------------|------------------------|
------------------------|------------------------|------------------------|------------------------|
------7-----8--------7--|---8--------7-----8-----|------8-----10-------8--|---10-------8-----10----|x2
------------------------|------------------------|------------------------|------------------------|
5--5-----5-----5--5-----|5-----5--5-----5-----5/-|8--8-----8-----8--8-----|8-----8--8-----8-----8--|


Verse
------------------------|------------------------|------------------------|------------------------|
6----6--6---------------|------------------------|6----6--6---------------|------------------------|
7----7--7---------------|------------------------|5----5--5---------------|------------------------|
7----7--7---------------|------------------------|------------------------|------------------------|
5----0--5---------------|------------------------|5----0--5---------------|------------------------|
------------------------|------------------------|------------------------|------------------------|


------------------------|------------------------|------------------------|------------------------|
6----6--6---------------|------------------------|------------------------|------------------------|
7----7--7---------------|------------------------|10---10-10--------------|9----9--9---------------|x2
8----8--8---------------|------------------------|10---10-10--------------|7----7--7---------------|
5----5--5---------------|------------------------|8----8--8---------------|7----7--7---------------|
5----5--5---------------|------------------------|8----8--8---------------|7----7--7---------------|


2nd verse, 2nd round:
------------------------|------------------------|------------------------|------------------------|
6----6--6---------------|------------------------|8----8--8---------------|------------------------|
7----7--7---------------|------------------------|5----5--5---------------|------------------------|
7----7--7---------------|------------------------|------------------------|------------------------|
5----0--5---------------|------------------------|5----0--5---------------|------------------------|
------------------------|------------------------|------------------------|------------------------|

Pre-chorus

------------------------|------------------------|------------------------|------------------------|
------------------------|------------------------|------------------------|------------------------|
------------------------|------------------------|------------------------|------------------------|
------------------------|------------------------|------------------------|------------------------|
------------------------|------------------------|------------------------|------------------------|
8--8--8--8--8--8-----8--|---8--8--8--8--8-----8--|---8--8--8--8--8-----8--|---8--8--8--8--8--8--10-|


------------------------|------------------------|------------------------|------------------------|
------------------------|------------------------|------------------------|------------------------|
------------------------|------------------------|------------------------|------------------------|
------------------------|------------------------|------------------------|------------7-----------|
------------------------|------------------------|7--7--7--7--7--7--7--7--|7--7--7--7--7-----------|
7--7--7--7--7--7-----7--|---7--7--7--7--7--7--7--|7--7--7--7--7--7--7--7--|7--7--7--7--7-----------|
						     PM______________________________


Chorus
------------------------|------------------------|------------------------|------------------------|
------------------------|6--6--6--6--8--8--8--8--|------------------------|------------------------|
7--7--7--7--7--7--7--7--|------------------------|------------------------|------------------------|
7--7--7--7--7--7--7--7--|7--7--7--7--7--7--7--7--|5--5--5--5--5--5--5--5--|7--7--7--7--7--7--7--7--|
5--5--5--5--5--5--5--5--|5--5--5--5--5--5--5--5--|3--3--3--3--3--3--3--3--|3--3--3--3--3--3--3--3--|
------------------------|------------------------|3--3--3--3--3--3--3--3--|3--3--3--3--3--3--3--3--|

------------------------|------------------------|------------------------|------------------------|
------------------------|------------------------|------------------------|------------------------|
10-10----10-10-10----10-|------------------------|12-12----12-12-12----12-|------------------------|
8--8-----8--8--8-----8--|12-12----12-12-12----12-|10-10----10-10-10----10-|12-12----12-12-12----12-|
8--8-----8--8--8-----8--|8--8-----8--8--8-----8--|10-10----10-10-10----10-|10-10----10-10-10----10-|
8--8-----8--8--8-----8--|8--8-----8--8--8-----8--|10-10----10-10-10----10-|10-10----10-10-10----10-|

------------------------|------------------------|------------------------|------------------------|
------------------------|6--6--6--6--8--8--8--8--|------------------------|------------------------|
7--7--7--7--7--7--7--7--|------------------------|------------------------|5--5--5--5--5--5--5--5--|
7--7--7--7--7--7--7--7--|7--7--7--7--7--7--7--7--|5--5--5--5--5--5--5--5--|3--3--3--3--3--3--3--3--|
5--5--5--5--5--5--5--5--|5--5--5--5--5--5--5--5--|3--3--3--3--3--3--3--3--|3--3--3--3--3--3--3--3--|
------------------------|------------------------|3--3--3--3--3--3--3--3--|3--3--3--3--3--3--3--3--|

------------------------|------------------------|------------------------|------------------------|
------------------------|------------------------|------------------------|------------------------|
10-10----10-10-10----10-|------------------------|12-12----12-12-12----12-|9--9-----9--9--9-----9--|
8--8-----8--8--8-----8--|12-12----12-12-12----12-|10-10----10-10-10----10-|7--7-----7--7--7-----7--|
8--8-----8--8--8-----8--|8--8-----8--8--8-----8--|10-10----10-10-10----10-|7--7-----7--7--7-----7--|
8--8-----8--8--8-----8--|8--8-----8--8--8-----8--|10-10----10-10-10----10-|7--7-----7--7--7-----7--|


C-part, last round:
------------------------|------------------------|------------------------|------------------------|
------------------------|------------------------|------------------------|------------------------|
------------------------|------------------------|------------------------|------------------------|
------7-----8--------7--|---8--------7-----8-----|------5-----7--------5--|---7--------------------|
------------------------|------------------------|------------------------|------------7--7--------|
5--5-----5-----5--5-----|5-----5--5-----5-----5/-|7--7-----7-----7--7-----|7-----7--7--------7--7--|


Breakdown chorus
------------------------|------------------------|------------------------|------------------------|
------------------------|------------------------|------------------------|------------------------|
7\----------------------|------------------------|------------------------|------------------------|
7\----------------------|------------------------|------------------------|------------------------|
5\----------------------|------------------------|------------------------|------------------------|
------------------------|------------------------|3--3--3--3--3--3--3--3--|3--3--3--3--3--3--3--3--|
						  PM_______________________________________________

------------------------|------------------------|------------------------|------------------------|
------------------------|------------------------|------------------------|------------------------|
------------------------|------------------------|------------------------|------------------------|
------------------------|------------------------|------------------------|------------------------|
------------------------|------------------------|------------------------|------------------------|
8--8--8--8--8--8--8--8--|8--8--8--8--8--8--8--8--|10-10-10-10-10-10-10-10-|7--7--7--7--7--7--7--7--|
PM_________________________________________________________________________________________________

------------------------|------------------------|------------------------|------------------------|
------------------------|------------------------|------------------------|------------------------|
------------------------|------------------------|------------------------|------------------------|
------------------------|------------------------|------------------------|------------------------|
5--5--5--5--5--5--5--5--|5--5--5--5--5--5--5--5--|3--3--3--3--3--3--3--3--|3--3--3--3--3--3--3--3--|
0--0--0--0--0--0--0--0--|0--0--0--0--0--0--0--0--|3--3--3--3--3--3--3--3--|3--3--3--3--3--3--3--3--|
PM_________________________________________________________________________________________________

------------------------|------------------------|------------------------|------------------------|
------------------------|------------------------|------------------------|------------------------|
------------------------|------------------------|------------------------|------------------------|
------------------------|------------------------|------------------------|------------------------|
8--8--8--8--8--8--8--8--|8--8--8--8--8--8--8--8--|10-10-10-10-10-10-10-10-|7--7--7--7--7-----------|
8--8--8--8--8--8--8--8--|8--8--8--8--8--8--8--8--|10-10-10-10-10-10-10-10-|7--7--7--7--7-----------|
PM___________________________________________________________________________________


Outro, last round:
------------------------|------------------------|------------------------|------------------------|
------------------------|------------------------|---------------------8--|------------------------|
------5-----7--------5--|---7--------------------|------5-----7-----------|---7--------------------|
------------------------|------------7-----7--7--|------------------------|------------7-----7--7--|
5--5-----5-----5--5-----|5-----5--5-----5--------|5--5-----5-----5--5-----|5-----5--5-----5--------|
------------------------|------------------------|------------------------|------------------------|

------------------------|------------------------|------------------------|------------------------|
------------------------|------------------------|------------------------|------------------------|
------------------------|------------------------|------------------------|------------------------|
------7-----8--------10-|---8--------7-----8--8--|------7-----8--------10-|---8--------7-----7--8--|
------------------------|------------------------|------------------------|------------------------|
5--5-----5-----5--5-----|5-----5--5-----5--------|8--8-----8-----8--8-----|8-----8--8-----8--------|

------------------------|------------------------|
6----6--6---------------|------------------------|
7----7--7---------------|------------------------|
7----7--7---------------|0-----------------------|
5----0--5---------------|0-----------------------|
------------------------|0-----------------------|





Comments


Popular Disco Ensemble tabs & chords
Lefty Bass Tabs
Second Soul Bass Tabs
Sleep On The Wheel Bass Tabs
So Cold Bass Tabs
Zombies Bass Tabs
Dynamite Days Tabs
Fresh New Blood Tabs
Headphones Intro Tabs
Magic Recoveries 1 Tabs
This Is My Head Exploding Tabs


Song lyrics



↑ Back to top | Tablatures and chords are parodies/interpretations of the original songs. You may use it for private study, scholarship, research or language learning purposes only
© 2014 AZChords.com Contact us | Privacy policy | DMCA | Add/correct tabs | Request tabs | Top 50 tabs