>
 >
See If I Care

See If I Care Guitar Tabs

Disco Ensemble - See If I Care chords, tabs, tablatures, lyrics

Guitar lessons | Add/correct | Request | Top 50 tabs Artists:  A B C D E F G H I J K L M N O P Q R S T U V W X Y Z 0-9

See If I Care Guitar Tabs – Disco Ensemble

CD, Sheet music, Poster

Do you like See If I Care? Share with your friends now
Tabs
					DISCO ENSEMBLE: SEE IF I CARE

tuning: DADGBE

1.Verse
------------------------|------------------------|------------------------|------------------------|
5--5--3-----x--x--3-----|5--5--3-----x--x--3-----|5--5--3-----x--x--3-----|5--5--3-----x--x--3-----|
5--5--5-----x--x--5-----|5--5--5-----x--x--5-----|5--5--5-----x--x--5-----|5--5--5-----x--x--5-----|
------------------------|------------------------|------------------------|------------------------|
------------------------|------------------------|------------------------|------------------------|
------------------------|------------------------|------------------------|------------------------|

------------------------|------------------------|------------------------|------------------------|
5--5--3-----x--x--3-----|5--5--3-----x--x--3-----|3--3--1-----x--x--1-----|3--3--1-----x--x--1-----|
5--5--5-----x--x--5-----|4--4--4-----x--x--4-----|2--2--2-----x--x--2-----|0--0--0-----x--x--0-----|
------------------------|------------------------|------------------------|------------------------|
------------------------|------------------------|------------------------|------------------------|
------------------------|------------------------|------------------------|------------------------|

------------------------|------------------------|------------------------|------------------------|
5--5--3-----x--x--3-----|5--5--3-----x--x--3-----|5--5--3-----x--x--3-----|6--6--5-----x--x--5-----|
5--5--5-----x--x--5-----|5--5--5-----x--x--5-----|5--5--5-----x--x--5-----|5--5--5-----x--x--5-----|
------------------------|------------------------|------------------------|------------------------|
------------------------|------------------------|------------------------|------------------------|
------------------------|------------------------|------------------------|------------------------|

------------------------|------------------------|------------------------|------------------------|
5--5--3-----x--x--3-----|5--5--3-----x--x--3-----|3--3--1-----x--x--1-----|3--3--1-----x--x--1-----|
5--5--5-----x--x--5-----|4--4--4-----x--x--4-----|2--2--2-----x--x--2-----|0--0--0-----x--x--0-----|
------------------------|------------------------|------------------------|------------------------|
------------------------|------------------------|------------------------|------------------------|
------------------------|------------------------|------------------------|------------------------|


1.Pre-chorus
------------------------|------------------------|------------------------|------------------------|
------------------------|------------------------|------------------------|------------------------|
9--9--7--7--7--7--7--7--|9--9--7--7--7--7--7--7--|9--9--5--5--5--5--5--5--|9--9--5--5--5--5--5--5--|
10-10-10-10-10-10-10-10-|10-10-10-10-10-10-10-10-|7--7--7--7--7--7--7--7--|7--7--7--7--7--7--7--7--|
------------------------|------------------------|------------------------|------------------------|
------------------------|------------------------|------------------------|------------------------|
PM_________________________________________________________________________________________________

------------------------|------------------------|------------------------|------------------------|
------------------------|------------------------|------------------------|------------------------|
9--9--7--7--7--7--7--7--|9--9--7--7--7--7--7--7--|------------------------|------------------------|
10-10-10-10-10-10-10-10-|10-10-10-10-10-10-10-10-|7\----------------------|------------5--5--------|
------------------------|------------------------|7\----------------------|------------5--5--------|
------------------------|------------------------|7\----------------------|------------5--5--------|
PM_______________________________________________

Chorus
------------------------|------------------------|------------------------|------------------------|
------------------------|------------------------|------------------------|------------------------|
------------------------|------------------------|------------------------|------------------------|
------------------------|------------------------|------------------------|------------------------|
7--7--5-----------5-----|7--7--5-----------5-----|10-10-7-----------7-----|10-10-7-----------7-----|
3--3--3--3--3--3--3--3--|3--3--3--3--3--3--3--3--|7--7--7--7--7--7--7--7--|7--7--7--7--7--7--7--7--|

------------------------|------------------------|------------------------|------------------------|
------------------------|------------------------|------------------------|------------------------|
------------------------|------------------------|12-12-12-12-12-12-12-12-|------------------------|
------------------------|------------------------|10-10-10-10-10-10-10-10-|14-14-14-14-12-12-12-12-|
7--7--5-----------5-----|7--7--5-----------5-----|10-10-10-10-10-10-10-10-|10-10-10-10-10-10-10-10-|
3--3--3--3--3--3--3--3--|3--3--3--3--3--3--3--3--|10-10-10-10-10-10-10-10-|9--9--9--9--9--9--9--9--|

------------------------|------------------------|------------------------|------------------------|
------------------------|------------------------|------------------------|------------------------|
12-12-12-12-12-12-12-12-|10-10-10-10-10-10-10-10-|9--9--9--9--9--9--9--9--|9--9--9--9--------------|
10-10-10-10-10-10-10-10-|10-10-10-10-10-10-10-10-|10-10-10-10-10-10-10-10-|10-10-10-10-12-12-12-12-|
8--8--8--8--8--8--8--8--|8--8--8--8--8--8--8--8--|7--7--7--7--7--7--7--7--|7--7--7--7--7--7--7--7--|
------------------------|------------------------|7--7--7--7--7--7--7--7--|7--7--7--7--7--7--7--7--|

------------------------|------------------------|------------------------|------------------------|
------------------------|------------------------|------------------------|------------------------|
------------------------|------------------------|12-12-12-12-12-12-12-12-|------------------------|
------------------------|------------------------|10-10-10-10-10-10-10-10-|14-14-14-14-12-12-12-12-|
------------------------|------------------------|10-10-10-10-10-10-10-10-|10-10-10-10-10-10-10-10-|
3--3--3--3--3--3--3--3--|3--3--3--3--3--3--3--3--|10-10-10-10-10-10-10-10-|9--9--9--9--9--9--9--9--|

------------------------|------------------------|------------------------|------------------------|
------------------------|------------------------|------------------------|------------------------|
2-----------------------|------------------------|------------------------|------------------------|
2-----------------------|------------------------|------------------------|------------------------|
0-----------------------|------------------------|------------------------|------------------------|
------------------------|------------------------|------------------------|------------------------|


2.Verse
------------------------|------------------------|------------------------|------------------------|
5--5--3-----x--x--3-----|5--5--3-----x--x--3-----|5--5--3-----x--x--3-----|5-----3--5b(6)-5b(6)-5--|
5--5--5-----x--x--5-----|5--5--5-----x--x--5-----|5--5--5-----x--x--5-----|---5--------------------|
------------------------|------------------------|------------------------|------------------------|
------------------------|------------------------|------------------------|------------------------|
------------------------|------------------------|------------------------|------------------------|

------------------------|------------------------|------------------------|------------------------|
5--5--3-----x--x--3-----|5--5--3-----x--x--3-----|3--3--1-----x--x--1-----|3--3--1-----x--x--1-----|
5--5--5-----x--x--5-----|4--4--4-----x--x--4-----|2--2--2-----x--x--2-----|0--0--0-----x--x--0-----|
------------------------|------------------------|------------------------|------------------------|
------------------------|------------------------|------------------------|------------------------|
------------------------|------------------------|------------------------|------------------------|

------------------------|------------------------|------------------------|------------------------|
------3-----5-----3-----|------3-----5-----3-----|------3-----5-----3-----|------3-----5-----3-----|
5--5-----5-----5-----5--|---5-----5-----5-----5--|---5-----5-----5-----5--|---5-----5-----5-----5--|
------------------------|------------------------|------------------------|------------------------|
------------------------|------------------------|------------------------|------------------------|
------------------------|------------------------|------------------------|------------------------|

------------------------|------------------------|------------------------|------------------------|
------3-----5-----3-----|------3-----5-----3-----|------1-----3-----1-----|------1-----3-----1-----|
---5-----5-----5-----5--|---4-----4-----4-----4--|---2-----2-----2-----2--|---0-----0-----0-----0--|
------------------------|------------------------|------------------------|------------------------|
------------------------|------------------------|------------------------|------------------------|
------------------------|------------------------|------------------------|------------------------|


2.Pre-chorus
------------------------|------------------------|------------------------|------------------------|
------------------------|------------------------|------------------------|------------------------|
---5--------5-----------|---5--------5-----------|---5--------5-----------|---5--------5-----------|
------3--------3-----3--|------3--------3-----3--|------2--------2-----2--|------2--------2-----2--|
5--------5--------5-----|5--------5--------5-----|0--------0--------0-----|0--------0--------0-----|
------------------------|------------------------|------------------------|------------------------|
PM_________________________________________________________________________________________________


------------------------|------------------------|------------------------|------------------------|
------------------------|------------------------|------------------------|------------------------|
---5--------5-----------|---5--------5-----------|------------------------|------------------------|
------3--------3-----3--|------3--------3-----3--|7\----------------------|------------5--5--------|
5--------5--------5-----|5--------5--------5-----|7\----------------------|------------5--5--------|
------------------------|------------------------|7\----------------------|------------5--5--------|
PM_______________________________________________


Ending of 2nd chorus
------------------------|------------------------|------------------------|------------------------|
------------------------|------------------------|------------------------|------------------------|
------------------------|------------------------|12-12-12-12-12-12-12-12-|------------------------|
------------------------|------------7--7--5--5--|10-10-10-10-10-10-10-10-|14-14-14-14-12-12-12-12-|
------------------------|------------3--3--3--3--|10-10-10-10-10-10-10-10-|10-10-10-10-10-10-10-10-|
3--3--3--3--3--3--3--3--|3--3--3--3--3--3--3--3--|10-10-10-10-10-10-10-10-|9--9--9--9--9--9--9--9--|


Guitar Solo
------------------------|------------------------|------------------------|------------------------|
------------------------|------------------------|------------------------|------------------------|
---12-------12-------12-|---12----------12----12-|---12-------12-------12-|---12----------12----12-|
17----17-17----17-17----|17----17-17-16----16----|14----14-14----14-14----|14----14-14-12----12----|
------------------------|------------------------|------------------------|------------------------|
------------------------|------------------------|------------------------|------------------------|
let ring

------------------------|------------------------|------------------------|------------------------|
------------------------|------------------------|------------------------|------------------------|
---12-------12-------12-|---14-------14-------14-|---12-------12-------12-|---12----------12----12-|
17----17-17----17-17----|17----17-17----17-17----|17----17-17----17-17----|17----17-17-16----16----|
------------------------|------------------------|------------------------|------------------------|
------------------------|------------------------|------------------------|------------------------|

C-part

------------------------|------------------------|------------------------|------------------------|
------------------------|------------------------|------------------------|------------------------|
------------------------|------------------------|------------------------|------------------------|
5--5--5--5--5--5--5--5--|4--4--4--4--4--4--4--4--|------------------------|------------------------|
3--3--3--3--3--3--3--3--|2--2--2--2--2--2--2--2--|2--2--2--2--2--2--2--2--|5--5--5--5--5--5--5--5--|
------------------------|------------------------|2--2--2--2--2--2--2--2--|5--5--5--5--5--5--5--5--|
PM_________________________________________________________________________________________________

------------------------|------------------------|------------------------|------------------------|
------------------------|------------------------|------------------------|------------------------|
------------------------|2--2--2--2--2--2--2--2--|------------------------|------------------------|
5--5--5--5--5--5--5--5--|0--0--0--0--0--0--0--0--|------------------------|------------------------|
3--3--3--3--3--3--3--3--|2--2--2--2--2--2--2--2--|2--2--2--2--2--2--2--2--|2--2--2--2--0--0--0--0--|
------------------------|------------------------|2--2--2--2--2--2--2--2--|2--2--2--2--0--0--0--0--|
PM_________________________________________________________________________________________________

------------------------|------------------------|------------------------|------------------------|
------------------------|------------------------|------------------------|------------------------|
---0--------0--------0--|---0-----------0-----0--|---0--------0--------0--|---0-----------0-----0--|
5-----5--5-----5--5-----|5-----5--5--4-----4-----|2-----2--2-----2--2-----|2-----2--2--0-----0-----|
------------------------|------------------------|------------------------|------------------------|
------------------------|------------------------|------------------------|------------------------|
let ring

------------------------|------------------------|------------------------|------------------------|
------------------------|------------------------|------------------------|------------------------|
---0--------0--------0--|---2--------2--------2--|---0--------0--------0--|---0-----------0-----0--|
5-----5--5-----5--5-----|5-----5--5-----5--5-----|5-----5--5-----5--5-----|5-----5--5--5-----5-----|
------------------------|------------------------|------------------------|------------------------|
------------------------|------------------------|------------------------|------------------------|


Breakdown chorus
------------------------|------------------------|------------------------|------------------------|
------------------------|------------------------|------------------------|------------------------|
5-----------------------|------------------------|------------------------|------------------------|
3-----------------------|------------------------|------------------------|------------------------|
3-----------------------|------------------------|------------------------|------------------------|
3-----------------------|------------------------|7h*---------------------|------------------------|
						* hammer-on with your right hand finger

------------------------|------------------------|------------------------|------------------------|
------------------------|------------------------|------------------------|------------------------|
5h----------------------|-----------------4p-----|------------------------|------------------------|
------------------------|------------------------|5h----------------------|------------------------|
------------------------|------------------------|------------------------|------------------------|
3p----------------------|------------------------|7h*---------------------|----------\5*-----------|
						h=hammer-on
						p=pull-off

------------------------|------------------------|------------------------|------------------------|
------------------------|------------------------|------------------------|------------------------|
5h---------4p-----------|5h---------4p-----------|5h---------4p-----------|5h---------4p-----------|
------------------------|------------------------|------------------------|------------------------|
------------------------|------------------------|------------------------|------------------------|
3p----------------------|------------------------|7h*---------------------|------------------------|


------------------------|------------------------|------------------------|------------------------|
------------------------|------------------------|------------------------|------------------------|
5h---------4p-----------|5h---------4p-----------|0--0--0--0--0--0--0--0--|0--0--0--0--------------|
------------------------|------------------------|5--5--5--5--5--5--5--5--|5--5--5--5--5--5--------|
------------------------|------------------------|------------------------|------------5--5--------|
3p----------------------|------------------------|------------------------|------------5--5--------|

Last chorus
------------------------|------------------------|------------------------|------------------------|
------------------------|------------------------|------------------------|------------------------|
------------------------|------------------------|------------------------|------------------------|
------------------------|------------------------|------------------------|------------------------|
7--7--5-----------5-----|7--7--5-----------5-----|10-10-7-----------7-----|10-10-7-----------7-----|
3--3--3--3--3--3--3--3--|3--3--3--3--3--3--3--3--|7--7--7--7--7--7--7--7--|7--7--7--7--7--7--7--7--|

------------------------|------------------------|-----------------------------|--------------------------------------|
------------------------|------------------------|-----------------------------|--------------------------------------|
------------------------|------------------------|12-x-x-x-x-12-x-x-x-x-12-x-x-|--------------------------------------|
------------------------|------------------------|10-x-x-x-x-10-x-x-x-x-10-x-x-|14-x-x-x-x-12-12-12-12-12-------------|
7--7--5-----------5-----|7--7--5-----------5-----|10-x-x-x-x-10-x-x-x-x-10-x-x-|10-x-x-x-x-10-------------10-10-10-10-|
3--3--3--3--3--3--3--3--|3--3--3--3--3--3--3--3--|10-x-x-x-x-10-x-x-x-x-10-x-x-|9--x-x-x-x-9--9--9--9--9--9--9--9--9--|
											      PM______________________


------------------------|------------------------|------------------------|------------------------|
------------------------|------------------------|------------------------|------------------------|
12-12-12-12-12-12-12-12-|10-10-10-10-10-10-10-10-|12-12-12-12-12-12-12-12-|9--9--9--9--9--9--9--9--|
10-10-10-10-10-10-10-10-|10-10-10-10-10-10-10-10-|10-10-10-10-10-10-10-10-|10-10-10-10-10-10-10-10-|
8--8--8--8--8--8--8--8--|8--8--8--8--8--8--8--8--|7--7--7--7--7--7--7--7--|7--7--7--7--7--7--7--7--|
------------------------|------------------------|7--7--7--7--7--7--7--7--|7--7--7--7--7--7--7--7--|

------------------------|------------------------|------------------------|------------------------|
------------------------|------------------------|------------------------|------------------------|
------------------------|------------------------|12-12-12-12-12-12-12-12-|------------------------|
------------------------|------------7--7--5--5--|10-10-10-10-10-10-10-10-|14-14-14-14-12-12-12-12-|
------------------------|------------3--3--3--3--|10-10-10-10-10-10-10-10-|10-10-10-10-10-10-10-10-|
3--3--3--3--3--3--3--3--|3--3--3--3--3--3--3--3--|10-10-10-10-10-10-10-10-|9--9--9--9--9--9--9--9--|


------------------------|------------------------|------------------------|------------------------|
------------------------|------------------------|------------------------|------------------------|
---------12-------------|------------------------|------------------------|------------------------|
---------7--------------|------------------------|------------------------|------------------------|
---------7--------------|------------------------|------------------------|------------------------|
---------7--------------|------------------------|------------------------|------------------------|





Comments


Popular Disco Ensemble tabs & chords
Bay Of Biscay Bass Tabs
Drop Dead Casanova Bass Tabs
Headphones Bass Tabs
Magic Recoveries Bass Tabs
Sleep On The Wheel Bass Tabs
First Aid Kit Tabs
Fresh New Blood Tabs
Magic Recoveries 1 Tabs
Threat Letter Typewriter Tabs
We Might Fall Apart Tabs


Song lyrics



↑ Back to top | Tablatures and chords are parodies/interpretations of the original songs. You may use it for private study, scholarship, research or language learning purposes only
© 2014 AZChords.com Contact us | Privacy policy | DMCA | Add/correct tabs | Request tabs | Top 50 tabs