» » »

Disco Ensemble, Protector Bass tabs (ver.1)

Artists:  A B C D E F G H I J K L M N O P Q R S T U V W X Y Z # 

Protector Bass tabs (ver.1)

Disco Ensemble Tabs
 Rating:
4.2/5 (5 votes)
Protector lessons Tabs too difficult? Try these video lessons and learn fast
                Disco Ensemble - Protector


Drop D tuning (DADG)

Intro:

G|-------------------------|
D|-------------------------|
A|--10----7----------------|
D|-------------9----7------|

Verse:

G|---------------------------------------------------------------------|
D|---------------------------------------------------------------------|
A|----------------------------9-9-7-7-------------------------10-10-9--|
D|--9-9-9-9-9-9-9-9-9-9-9-9-9---------9-9-9-9-9-9-9-9-9-9-9-9----------|

G|---------------------------------------------------------------------|  x2
D|---------------------------------------------------------------------|
A|--9-------------------------10-10-9-9--------------------------------|
D|----7-7-7-7-7-7-7-7-7-7-7-7-----------7-7-7-7-7-7-7-7-7-7-7-7-7-7-7--|

Chorus:

G|---------------------------------------------------------------------------|  x4
D|---------------------------------------------------------------------------|
A|--10-10-10-10-10-10-10-10-7-7-7-7-7-7-7-7----------------------------------|
D|------------------------------------------9-9-9-9-9-9-9-9-7-7-7-7-7-7-7-7--|

Verse 2:

G|---------------------------------------------------------------------|
D|---------------------------------------------------------------------|
A|----------------------------9-9-7-7-------------------------10-10-9--|
D|--9-9-9-9-9-9-9-9-9-9-9-9-9---------9-9-9-9-9-9-9-9-9-9-9-9----------|

G|---------------------------------------------------------------------|
D|---------------------------------------------------------------------|
A|--9-------------------------10-10-9-9--------------------------------|
D|----7-7-7-7-7-7-7-7-7-7-7-7-----------7-7-7-7-7-7-7-7-7-7-7-7-7-7-7--|

G|---------------------------------------------------------------------|
D|--9-9-9-9-9-9-9-9-9-9-9-9-9---------9-9-9-9-9-9-9-9-9-9-9-9----------|
A|----------------------------9-9-7-7-------------------------10-10-9--|
D|---------------------------------------------------------------------|

G|---------------------------------------------------------------------|
D|---------------------------------------------------------------------|
A|--9-------------------------10-10-9-9--------------------------------|
D|----7-7-7-7-7-7-7-7-7-7-7-7-----------7-7-7-7-7-7-7-7-7-7-7-7-7-7-7--|

- Chorus

Guitar solo:

play chorus x4


Bridge:

G|------------------------------------------|  x2
D|------------------------------------------|
A|--------------------/12--------7----------|
D|--9--------7------------------------------|

G|-------------------------------------------------------------------------------|
D|-------------------------------------------------------------------------------|
A|--14-14-14-14-12-12-12-12-10-10-10-10-9-9-9-9----------------------------------|
D|----------------------------------------------7-7-7-7-7-7-7-7-7-7-7-7-7-7-7-7--|

G|---------------------------------------------------------------------------|
D|---------------------------------------------------------------------------|
A|--12-12-12-12-10-10-10-10-9-9-9-9-7-7-7-5-7-7-7-7-7-7-7-7-7-7-7-7-7-7-7-7--|
D|---------------------------------------------------------------------------|

- Chorus
            
Submit corrections

comments powered by Disqus
↑ Back to top | Disco Ensemble Bass for Protector. Lyrics for acoustic guitar and electric guitar. Tablatures and chords are parodies/interpretations of the original songs. You may use it for private study, scholarship, research or language learning purposes only