>
 >
Magic Recoveries 1

Magic Recoveries 1 Guitar Tabs

Disco Ensemble - Magic Recoveries 1 chords, tabs, tablatures, lyrics

Guitar lessons | Add/correct | Request | Top 50 tabs Artists:  A B C D E F G H I J K L M N O P Q R S T U V W X Y Z 0-9

Magic Recoveries 1 Guitar Tabs – Disco Ensemble

CD, Sheet music, Poster

Do you like Magic Recoveries 1? Share with your friends now
Bass TabsTabsTabs v2
Tuning: Drop D (D A D G H e)

This is a tab of the new Disco Ensemble album, albumtrack "Magic Recoveries"

Intro: x4

E||---------------------------|---------------------------|---------------------------|
B||--10-----8--8--------8--8--|--------8--8--10-----8--8--|-----8-----8---------------|
G||---------------9-----------|--9------------------------|--9-----9------------------|
D||---------------------------|---------------------------|---------------------------|
A||---------------------------|---------------------------|---------------------------|
D||---------------------------|---------------------------|---------------------------|

Verse: x3

E||-------------------------|-------------------------|-----------------------------------|
B||-------------------------|-------------------------|-----------------------------------|
G||-------------------------|-------------------------|-----------------------------------|
D||--7-----7----7-----7-----|--7-----7----7-----7-----|--x14-x14-x14-x14-x14-x14-x14-x14--|
A||--7-----7----7-----7-----|--7-----7----7-----7-----|--x14-x14-x14-x14-x14-x14-x14-x14--|
D||--7-----7----7-----7-----|--7-----7----7-----7-----|--x14-x14-x14-x14-x14-x14-x14-x14--|

Chorus: x4

E||---------------------------|---------------------------|---------------------------|
B||--10-----8--8--------8--8--|--------8--8--10-----8--8--|-----8-----8---------------|
G||---------------9-----------|--9------------------------|--9-----9------------------|
D||---------------------------|---------------------------|---------------------------|
A||---------------------------|---------------------------|---------------------------|
D||---------------------------|---------------------------|---------------------------|


Verse:

E||-------------------------|-------------------------|-----------------------------------|
B||-------------------------|-------------------------|-----------------------------------|
G||-------------------------|-------------------------|-----------------------------------|
D||--7-----7----7-----7-----|--7-----7----7-----7-----|--x14-x14-x14-x14-x14-x14-x14-x14--|
A||--7-----7----7-----7-----|--7-----7----7-----7-----|--x14-x14-x14-x14-x14-x14-x14-x14--|
D||--7-----7----7-----7-----|--7-----7----7-----7-----|--x14-x14-x14-x14-x14-x14-x14-x14--|

E||-------------------------|-------------------------|-------------------------|
B||-------------------------|-------------------------|-------------------------|
G||-------------------------|-------------------------|-------------------------|
D||--7-----7----7-----7-----|--2-----2----2-----2-----|--7-----7----7-----7-----|
A||--7-----7----7-----7-----|--2-----2----2-----2-----|--7-----7----7-----7-----|
D||--7-----7----7-----7-----|--2-----2----2-----2-----|--7-----7----7-----7-----|


Chorus: x4

E||---------------------------|---------------------------|---------------------------|
B||--10-----8--8--------8--8--|--------8--8--10-----8--8--|-----8-----8---------------|
G||---------------9-----------|--9------------------------|--9-----9------------------|
D||---------------------------|---------------------------|---------------------------|
A||---------------------------|---------------------------|---------------------------|
D||---------------------------|---------------------------|---------------------------|


Solo:

E||------12--15--12------12--15--12--|--10--8--10--8------12--15--12--|
B||--10--------------10--------------|----------------10--------------|
G||----------------------------------|--------------------------------|
D||----------------------------------|--------------------------------|
A||----------------------------------|--------------------------------|
D||----------------------------------|--------------------------------|

E||------12--15--12--10--8--10--12---|------12--15--12------12--15--12|
B||--10------------------------------|--10--------------10------------|
G||----------------------------------|--------------------------------|
D||----------------------------------|--------------------------------|
A||----------------------------------|--------------------------------|
D||----------------------------------|--------------------------------|

E||--10--8--10--8------12--15--12----|--10--8--10--12--10--8--5\------|
B||----------------10----------------|--------------------------------|
G||----------------------------------|--------------------------------|
D||----------------------------------|-----------------------------7--|
A||----------------------------------|-----------------------------7--|
D||----------------------------------|-----------------------------7--|


Bridge:


E||----------------------|----------------------|----------------------|
B||----------------------|----------------------|----------------------|
G||----------------------|----------------------|----------------------|
D||--7----7----7----7----|--7----7----7----7----|--7----7----7----7----|
A||--7----7----7----7----|--7----7----7----7----|--7----7----7----7----|
D||--7----7----7----7----|--7----7----7----7----|--7----7----7----7----|

E||----------------------|----------------------|-------------------|
B||----------------------|----------------------|-------------------|
G||----------------------|----------------------|-------------------|
D||--7----7----7----7----|--7----7----7----7----|--5----------------|
A||--7----7----7----7----|--7----7----7----7----|--5----------------|
D||--7----7----7----7----|--7----7----7----7----|--5----------------|

E||--------------------------|--------------------------|--------------------------|
B||--------------------------|--------------------------|--------------------------|
G||--------------------------|--------------------------|--------------------------|
D||--10----10----10----10----|--10----10----10----10----|--10----10----10----10----|
A||--10----10----10----10----|--10----10----10----10----|--10----10----10----10----|
D||--10----10----10----10----|--10----10----10----10----|--10----10----10----10----|

E||--------------------------|----------------------------------|--------------------------|
B||--------------------------|----------------------------------|--------------------------|
G||--------------------------|----------------------------------|--------------------------|
D||--10----10----10----10----|--10--10--10--10--10--10--10--10--|--12----12----12----12----|
A||--10----10----10----10----|--10--10--10--10--10--10--10--10--|--12----12----12----12----|
D||--10----10----10----10----|--10--10--10--10--10--10--10--10--|--12----12----12----12----|

E||--------------------------|--------------------------|--------------------------|
B||--------------------------|--------------------------|--------------------------|
G||--------------------------|--------------------------|--------------------------|
D||--12----12----12----12----|--12----12----12----12----|--12----12----12----12----|
A||--12----12----12----12----|--12----12----12----12----|--12----12----12----12----|
D||--12----12----12----12----|--12----12----12----12----|--12----12----12----12----|

E||--------------------------|--------------------|--------------------------|
B||--------------------------|--------------------|--------------------------|
G||--------------------------|--------------------|--------------------------|
D||--12----12----12----12----|--10----------------|--15----15----15----15----|
A||--12----12----12----12----|--10----------------|--15----15----15----15----|
D||--12----12----12----12----|--10----------------|--15----15----15----15----|

E||--------------------------|--------------------------|--------------------------|
B||--------------------------|--------------------------|--------------------------|
G||--------------------------|--------------------------|--------------------------|
D||--15----15----15----15----|--15----15----15----15----|--15----15----15----15----|
A||--15----15----15----15----|--15----15----15----15----|--15----15----15----15----|
D||--15----15----15----15----|--15----15----15----15----|--15----15----15----15----|

E||----------------------------------|
B||----------------------------------|
G||----------------------------------|
D||--15--15--15--15--15--15--15--15--|
A||--15--15--15--15--15--15--15--15--|
D||--15--15--15--15--15--15--15--15--|


E||----------------------------------|----------------------------------|
B||----------------------------------|----------------------------------|
G||----------------------------------|----------------------------------|
D||----------------------------------|----------------------------------|
A||--12--12--12--12--12--12--12--12--|--12--12--12--12--12--12--10--10--|
D||----------------------------------|----------------------------------|

E||----------------------------------|----------------------------------|
B||----------------------------------|----------------------------------|
G||----------------------------------|----------------------------------|
D||----------------------------------|----------------------------------|
A||----------------------------------|----------------------------------|
D||--10--10--10--10--10--10--10--10--|--10--10--10--10--10--10--10--10--|

E||----------------------------------|----------------------------------|
B||----------------------------------|----------------------------------|
G||----------------------------------|----------------------------------|
D||----------------------------------|----------------------------------|
A||----------------------------------|----------------------------------|
D||--12--12--12--12--12--12--12--12--|--12--12--12--12--12--12--12--12--|

E||----------------------------------|----------------------------------|
B||----------------------------------|----------------------------------|
G||----------------------------------|----------------------------------|
D||----------------------------------|------------------x--x--x--x------|
A||----------------------------------|------------------x--x--x--x------|
D||--15--15--15--15--15--15--15--15--|--15--15--15--15--x--x--x--x------|


Verse: x4

E||---------------------------|---------------------------|---------------------------|
B||--10-----8--8--------8--8--|--------8--8--10-----8--8--|-----8-----8---------------|
G||---------------9-----------|--9------------------------|--9-----9------------------|
D||---------------------------|---------------------------|---------------------------|
A||---------------------------|---------------------------|---------------------------|
D||---------------------------|---------------------------|---------------------------|


Outro:

E||----------------------|----------------------|--------------------------|
B||----------------------|----------------------|--------------------------|
G||----------------------|----------------------|--------------------------|
D||--7----7----7----7----|--7----7----7----7----|--10----10----10----10----|
A||--7----7----7----7----|--7----7----7----7----|---7-----7-----7-----7----|
D||--7----7----7----7----|--7----7----7----7----|---7-----7-----7-----7----|

E||----------------------|----------------------|------------------------------------|
B||----------------------|----------------------|------------------------------------|
G||--10----10----10----10----|--------------------------|----------------------------|
D||--10----10----10----10----|--12----12----12----12----|--12----12----12----12------|
A||---7-----7-----7-----7----|--12----12----12----12----|--12----12----12----12------|
D||---7-----7-----7-----7----|--12----12----12----12----|--12----12----12----12------|

E||-----------------------|
B||-----------------------|
G||--7----9---------------|
D||------------7\---------|
A||------------7\---------|
D||------------7\---------|


Tips:
* Listen to the song for timing, it means a lot in this song.


Legend:

| /  slide up
| \  slide down
| h  hammer-on
| p  pull-off
| ~  vibrato
| +  harmonic
| x  Mute note





Comments


Popular Disco Ensemble tabs & chords
Magic Recoveries Bass Tabs
Zombies Bass Tabs
Protector Chords
Second Soul Chords
You Are The Dawn Chords
First Aid Kit Tabs
Sleep On The Wheel Tabs
So Long, Sisters Tabs
You Are The Dawn Tabs
You Are The Dawn Ukulele


Song lyrics



↑ Back to top | Tablatures and chords are parodies/interpretations of the original songs. You may use it for private study, scholarship, research or language learning purposes only
© 2014 AZChords.com Contact us | Privacy policy | DMCA | Add/correct tabs | Request tabs | Top 50 tabs