» » »

Life Of Crime Bass tabs (ver.1)

Artists:  A B C D E F G H I J K L M N O P Q R S T U V W X Y Z # 

Life Of Crime Bass tabs (ver.1)

Disco Ensemble
Rating:
5/5 (1 vote)

Hard to play? Try these video lessons and learn fast.
                Disco Ensemble - Life of crime


Tuning: Drop D (DADG)

Intro:

G|-------------------------------------------------------------------|
D|-------------------------------------------------------------------|
A|--------------------------------------------------9-9-9-9-9-9-9-9--|
D|--9-9-9-9-9-9-9-9-9-9-9-9-9-9-9-9-7-7-7-7-7-7-7-7------------------| x2

G|-------------------------------------------------------------------|
D|----------------------------------7-7-7-7-7-7-7-7------------------|
A|--5-5-5-5-5-5-5-5-5-5-5-5-5-5-5-5-----------------7-7-7-7-7-7-7-7--|
D|-------------------------------------------------------------------|

Verse:

G|-------------------------------------------------------------------|
D|-------------------------------------------------------------------|
A|--------------------------------------------------9-9-9-9-9-9-9-9--|
D|--9-9-9-9-9-9-9-9-9-9-9-9-9-9-9-9-7-7-7-7-7-7-7-7------------------| x4

Pre-Chorus:

G|-------------------------------------------------------------------|
D|------------------4-4-4-4-4-4-4-4-----------------4-4-4-4-4-4-4-4--|
A|--5-5-5-5-5-5-5-5-----------------5-5-5-5-5-5-5-5------------------|
D|-------------------------------------------------------------------| 

G|-------------------------------------------------------------------|
D|-------------------------------------------------------------------|
A|------------------7-7-7-7-7-7-7-7-----------------7-7-7-7-7-7------|
D|--7-7-7-7-7-7-7-7-----------------7-7-7-7-7-7-7-7------------------|

Chorus:

G|-------------------------------------------------------------------|
D|------------------4-4-4-4-4-4-4-4-----------------4-4-4-4-4-4-4-4--|
A|--5-5-5-5-5-5-5-5-----------------5-5-5-5-5-5-5-5------------------|
D|-------------------------------------------------------------------| 

G|-------------------------------------------------------------------|
D|-------------------------------------------------------------------|
A|------------------7-7-7-7-7-7-7-7----------------------------------|
D|--7-7-7-7-7-7-7-7-----------------7-7-7-7-7-7-7-7-9-9-9-9-9-9-9-9--|

Post-Chorus:

G|-------------------------------------------------------------------|
D|----------------------------------7-7-7-7-7-7-7-7------------------|
A|--------------------------------------------------9-9-9-9-9-9-9-9--|
D|--9-9-9-9-9-9-9-9-9-9-9-9-9-9-9-9----------------------------------|

G|-------------------------------------------------------------------|
D|-------------------------------------------------------------------|
A|--5-5-5-5-5-5-5-5-5-5-5-5-5-5-5-5-----------------7-7-7-7-7-7-7-7--|
D|----------------------------------7-7-7-7-7-7-7-7------------------|

Verse

Pre-Chorus:

G|-------------------------------------------------------------------|
D|------------------4-4-4-4-4-4-4-4-----------------4-4-4-4-4-4-4-4--|
A|--5-5-5-5-5-5-5-5-----------------5-5-5-5-5-5-5-5------------------|
D|-------------------------------------------------------------------| 

G|-------------------------------------------------------------------|
D|-------------------------------------------------------------------|
A|------------------7-7-7-7-7-7-7-7----------------------------------|
D|--7-7-7-7-7-7-7-7-----------------7-7-7-7-7-7-7-7-9-9-9-9-9-9-9-9--|

Break:

G|-------------------------------------------------------------------|
D|--7-7-7-7-7-7-7-7-7-7-7-7-7-7-7-7-7-7-7-7-7-7-7-7-7-7-7-7-7-7-7-7--|
A|-------------------------------------------------------------------|
D|-------------------------------------------------------------------|

G|-------------------------------------------------------------------|
D|-------------------------------------------------------------------|
A|--5-5-5-5-5-5-5-5-5-5-5-5-5-5-5-5-9-9-9-9-9-9-9-9-9-9-9-9-9-9-9-9--|
D|-------------------------------------------------------------------|

G|-------------------------------------------------------------------|
D|----------------------------------7-7-7-7-7-7-7-7-7-7-7-7-7-7-7-7--|
A|--7-7-7-7-7-7-7-7-7-7-7-7-7-7-7-7----------------------------------|
D|-------------------------------------------------------------------|

G|-------------------------------------------------------------------|
D|-------------------------------------------------------------------|
A|--5-5-5-5-5-5-5-5-5-5-5-5-5-5-5-5-9-9-9-9-9-9-9-9-9-9-9-9-9-9-9-9--|
D|-------------------------------------------------------------------|

G|-------------------------------------------------------------------|
D|-------------------------------------------------------------------|
A|--7-7-7-7-7-7-7-7-7-7-7-7-7----------------------------------------|
D|-------------------------------------------------------------------|

Bridge:

G|-------------------------------------------------------------------|
D|-------------------------------------------------------------------|
A|----------------------------------5-5-5-5-5-5-5-5-5-5-5-5-5-5-5-5--|
D|--7-7-7-7-7-7-7-7-7-7-7-7-7-7-7-7----------------------------------|

G|-------------------------------------------------------------------|
D|-------------------------------------------------------------------|
A|--9-9-9-9-9-9-9-9-9-9-9-9-9-9-9-9-7-7-7-7-7-7-7-7-7-7-7-7-7-7-7-7--|
D|-------------------------------------------------------------------| x3


G|-------------------------------------------------------------------|
D|-------------------------------------------------------------------|
A|----------------------------------5-5-5-5-5-5-5-5-5-5-5-5-5-5-5-5--|
D|--7-7-7-7-7-7-7-7-7-7-7-7-7-7-7-7----------------------------------|

G|-------------------------------------------------------------------|
D|-------------------------------------------------------------------|
A|--9-9-9-9-9-9-9-9-9-9-9-9-9-9-9-9-7~-------------------------------|
D|-------------------------------------------------------------------|

Break:

G|--------------------------------------------------------------------------|
D|--------------------------------------------------------------------------|
A|----------------------------9~-------5~------------------------7~---------|
D|--9~---------------7~---------------------------------7~------------------|

Build-up:

G|----------------------------------------------------------------------------|
D|-----------4~----------------4~---------------------------------------------|
A|--5~----------------5~-------------------------7~----------------7~---------|
D|--------------------------------------7~----------------7~------------------|

G|-------------------------------------------------------------------|
D|------------------4-4-4-4-4-4-4-4-----------------4-4-4-4-4-4-4-4--|
A|--5-5-5-5-5-5-5-5-----------------5-5-5-5-5-5-5-5------------------|
D|-------------------------------------------------------------------| 

G|-------------------------------------------------------------------|
D|--7-7-7-7-7-7-7-7-----------------7-7-7-7-7-7-7-7------------------|
A|------------------7-7-7-7-7-7-7-7-----------------7-7-7-7-7--------|
D|-------------------------------------------------------------------|

Solo:

G|-------------------------------------------------------------------|
D|-------------------------------------------------------------------|
A|----------------------------------5-5-5-5-5-5-5-5-5-5-5-5-5-5-5-5--|
D|--7-7-7-7-7-7-7-7-7-7-7-7-7-7-7-7----------------------------------|

G|-------------------------------------------------------------------|
D|-------------------------------------------------------------------|
A|--9-9-9-9-9-9-9-9-9-9-9-9-9-9-9-9-7-7-7-7-7-7-7-7-7-7-7-7-7-7-7-7--|
D|-------------------------------------------------------------------| x3


G|-------------------------------------------------------------------|
D|-------------------------------------------------------------------|
A|----------------------------------5-5-5-5-5-5-5-5-5-5-5-5-5-5-5-5--|
D|--7-7-7-7-7-7-7-7-7-7-7-7-7-7-7-7----------------------------------|

G|-------------------------------------------------------------------|
D|-------------------------------------------------------------------|
A|--9-9-9-9-9-9-9-9-9-9-9-9-9-9-9-9-7~-------------/12~--------------|
D|-------------------------------------------------------------------|
            
Hard to play? Try these video lessons and learn fast. | Correct




comments powered by Disqus
↑ Back to top | Tablatures and chords are parodies/interpretations of the original songs. You may use it for private study, scholarship, research or language learning purposes only